Sound will begin in 5 seconds

Pokemon Main Theme (Season 1)

01234567891011121314151617181920212223
E
B
G
D
A
E
B
0 1 2 3 4 5 6 7 8 9 10 11 12 13 14 15 16 17 18 19 20 21 22 23
Song Science #1: How Pros Use 6 Chords to Write Hit Songs
(/) Slide Up  (\) Slide Down  (h) Hammer On  (p) Pull Off  (b) Bend (r) Release (v) Vibrato

Stave 1:

E|------------------------------------------------------------------------------------------------------------------------------------------------------------------------------------------------
B|--15--15--15--15--15--15--13--10--6----6--15--15--13--11--13----15----16--16--16--16--16--16--15--13--11--11--15--15--13--11--15------15------15--15--15--15--15--15----13--10--6----6----------
G|------------------------------------------------------------------------------------------------------------------------------------------------------------------------------------------------
D|------------------------------------------------------------------------------------------------------------------------------------------------------------------------------------------------
A|------------------------------------------------------------------------------------------------------------------------------------------------------------------------------------------------
E|------------------------------------------------------------------------------------------------------------------------------------------------------------------------------------------------

Stave 2:

E|-------------------------------------------------------------------------------------------------------------------
B|--6--15--15--13--11--13------13------16--16--16--16--16--16--15--13--11--11--15--15--13--11--15--15----15--18--20--
G|-------------------------------------------------------------------------------------------------------------------
D|-------------------------------------------------------------------------------------------------------------------
A|-------------------------------------------------------------------------------------------------------------------
E|-------------------------------------------------------------------------------------------------------------------

Stave 3:

E|----------------------------------------15--15--17--18--17--15--13------13--15--15--15--13--10--8--------------------------------------
B|--15--15--18--20--20--18--15--13--11--------------------------------15-----------------------------11--11--13--15--15--13--11--15------
G|---------------------------------------------------------------------------------------------------------------------------------------
D|---------------------------------------------------------------------------------------------------------------------------------------
A|---------------------------------------------------------------------------------------------------------------------------------------
E|---------------------------------------------------------------------------------------------------------------------------------------

Stave 4:

E|----------------------------------------------------------17--18--17--17--15--15--13----11--18--18--18----13--18--18----18--18--18--17--10--10--13--15--15--10--10--13--15--18--15-------------
B|--15--15--18--20----15--15--18--20--20--18--20----20--20---------------------------------------------------------------------------------------------------------------------------------------
G|-----------------------------------------------------------------------------------------------------------------------------------------------------------------------------------------------
D|-----------------------------------------------------------------------------------------------------------------------------------------------------------------------------------------------
A|-----------------------------------------------------------------------------------------------------------------------------------------------------------------------------------------------
E|--------------------------------------------------------------------------------------------------------------------------------------------------------------------------------------3--3--3--

Stave 5:

E|--------------------------------
B|--------------------------------
G|--------------------------------
D|--------------------------------
A|--------------------------------
E|--10--13--15--3--3--3--3--3--3--

Stave 6:

E|-----------------------------------------------------------------
B|-----------------------------------------------------------------
G|-----------------------------------------------------------------
D|-----------------------------------------------------------------
A|-----------------------------------------------------------------
E|--5--5--5--5--5--5--5--5--5--5--12--15--17--5--5--5--5--0--1--3--

Stave 7:

E|--------------------------
B|--------------------------
G|--------------------------
D|--------------------------
A|--------------------------
E|--------------------------

Stave 8:

E|--------------------------------------------------------10--10--
B|--6--3--5--6--5--6--5----3--5--6--1--5--6--8--6--8--10----------
G|----------------------------------------------------------------
D|----------------------------------------------------------------
A|----------------------------------------------------------------
E|----------------------------------------------------------------

Stave 9:

E|------------------------------------------------------------------18--17------------------------------------18----------
B|--15--18--20----15--15--18--20--20--18--15--13--11----20--20--21----------20--18--15--18--20----20--20--20------20--20--
G|------------------------------------------------------------------------------------------------------------------------
D|------------------------------------------------------------------------------------------------------------------------
A|------------------------------------------------------------------------------------------------------------------------
E|------------------------------------------------------------------------------------------------------------------------

Stave 10:

E|--------------------------------------------------------------------------------------------15--15--17--18--17--15--13--------18--18--18--18------18--18----
B|--11--13--15--15--13--11--15----15--15--15--18--20----15--15--18--20--20--18--20--18--------------------------------------16------------------18------------
G|------------------------------------------------------------------------------------------------------------------------------------------------------------
D|------------------------------------------------------------------------------------------------------------------------------------------------------------
A|------------------------------------------------------------------------------------------------------------------------------------------------------------
E|------------------------------------------------------------------------------------------------------------------------------------------------------------

Stave 11:

E|--18--18--18--17------------------------------------------18--15--------------
B|------------------15--15--18--20--20--20--15--15--18--20----------15--18--20--
G|------------------------------------------------------------------------------
D|------------------------------------------------------------------------------
A|------------------------------------------------------------------------------
E|------------------------------------------------------------------------------

http://www.guitartabcreator.com
Guitar Tab Creator is intended to store guitar tab created through the tool. It currently does not support in-line text editing. Any text you place in here will be lost. If you need to comment on your tab, please use the "Tab Notes" section located below.