Sound will begin in 5 seconds

Inspector Gadget Main Theme

01234567891011121314151617181920212223
E
B
G
D
A
E
B
0 1 2 3 4 5 6 7 8 9 10 11 12 13 14 15 16 17 18 19 20 21 22 23
Song Science #1: How Pros Use 6 Chords to Write Hit Songs
(/) Slide Up  (\) Slide Down  (h) Hammer On  (p) Pull Off  (b) Bend (r) Release (v) Vibrato

Stave 1:

E|----------------------------------------------------------------------------------------------------
B|----------------------------------------------------------------------------------------------------
G|----------------------------------------------------------------------------------------------------
D|--7--9--10--12--14----7--9--10--12--14--19--18----7--9--10--12--12--14----7--9--10--12--14--19--21--
A|----------------------------------------------------------------------------------------------------
E|----------------------------------------------------------------------------------------------------

Stave 2:

E|------------------------------------------------------------------------------------
B|------------------------------------------------------------------------------------
G|------------------------------------------------------------------------------------
D|--19--18--14----17--16--13----19--18--14--17--16--13--15--14--9--10--14--12--10--9--
A|------------------------------------------------------------------------------------
E|------------------------------------------------------------------------------------

Stave 3:

E|---------------------------------------------------------------------------------------------------------
B|---------------------------------------------------------------------------------------------------------
G|---------------------------------------------------------------------------------------------------------
D|----7--9--10--12--14--10--13--8--12--10--7--9--10--14--19--18----9--7--9--10--12--14--10--13--9--12--10--
A|---------------------------------------------------------------------------------------------------------
E|---------------------------------------------------------------------------------------------------------

Stave 4:

E|-----------6--1--6--10--6--10--13--
B|--5--10----------------------------
G|-----------------------------------
D|-----------------------------------
A|-----------------------------------
E|-----------------------------------

http://www.guitartabcreator.com
Guitar Tab Creator is intended to store guitar tab created through the tool. It currently does not support in-line text editing. Any text you place in here will be lost. If you need to comment on your tab, please use the "Tab Notes" section located below.