El Primero/ capo on 2

Chords

01234567891011121314151617181920212223
E
B
G
D
A
E
B
0 1 2 3 4 5 6 7 8 9 10 11 12 13 14 15 16 17 18 19 20 21 22 23
(/) Slide Up  (\) Slide Down  (h) Hammer On  (p) Pull Off  (b) Bend (r) Release (v) Vibrato

Stave 1:

E|--------------------------------------------------------------
B|-----------0h1p0--------------0h1p0--------------0h1p0--------
G|--------2---------2--------0---------0--------0---------0-----
D|-----2------------------2------------------2------------------
A|--0------------------3------------------2------------------0--
E|--------------------------------------------------------------

Stave 2:

E|--0--0--0--0--
B|--1--0--1--0--
G|--2--2--0--0--
D|--2--2--2--2--
A|--0--0--3--2--
E|--0--0--0--0--

							http://www.guitartabcreator.com
Instruments
{"strings":[[[".",".",".",".",".",".",".",".",".",".",".",".",".",".",".",".",".",".",".",".",".",".",".",".",".",".",".","."],[".",".",".",0,"h",1,"p",0,".",".",".",".",0,"h",1,"p",0,".",".",".",".",0,"h",1,"p",0,".","."],[".",".",2,".",".",".",".",".",2,".",".",0,".",".",".",".",".",0,".",".",0,".",".",".",".",".",0,"."],[".",2,".",".",".",".",".",".",".",".",2,".",".",".",".",".",".",".",".",2,".",".",".",".",".",".",".","."],[0,".",".",".",".",".",".",".",".",3,".",".",".",".",".",".",".",".",2,".",".",".",".",".",".",".",".",0],[".",".",".",".",".",".",".",".",".",".",".",".",".",".",".",".",".",".",".",".",".",".",".",".",".",".",".","."]],[[0,0,0,0],[1,0,1,0],[2,2,0,0],[2,2,2,2],[0,0,3,2],[0,0,0,0]]],"numberofstrings":6,"notes":["E","B","G","D","A","E","B"],"capo":0,"stringnotes":["E4","B3","G3","D3","A2","E2"],"comments":["Stave 1:","Stave 2:"],"timing":[["W","W","W","W",null,"W",null,"W","W","W","W","W","W",null,"W",null,"W","W","W","W","W","W",null,"W",null,"W","W","W"],["W","W","W","W"]],"timingvisible":false,"tabcounter":4,"stave":1,"totalstaves":2,"instrument":"6guitar","selectedtuning":"6_standard","version":"13"}

Member for

1 month 3 weeks
Submitted by goosenotgeese on Thu, 2020-10-15 15:53