Sound will begin in 5 seconds

Puppet Theory

01234567891011121314151617181920212223
E
B
G
D
A
E
B
0 1 2 3 4 5 6 7 8 9 10 11 12 13 14 15 16 17 18 19 20 21 22 23
Song Science #1: How Pros Use 6 Chords to Write Hit Songs
(/) Slide Up  (\) Slide Down  (h) Hammer On  (p) Pull Off  (b) Bend (r) Release (v) Vibrato

Stave 1:

E|---------
B|---------
G|---------
D|-0-0-0-7-
A|-0-0-0-7-
E|-0-0-0-7-

Stave 2:

E|---------------------------------
B|---------------------------------
G|---------------------------------
D|-7-7-7-7-7-7-7-7-8-8-8-8-3-3-3-3-
A|-7-7-7-7-7-7-7-7-8-8-8-8-3-3-3-3-
E|-7-7-7-7-7-7-7-7-8-8-8-8-3-3-3-3-

Stave 3:

E|---------------------------------
B|---------------------------------
G|---------------------------------
D|-7-7-7-6-7-7-7-6-7-7-7-6-8-3-5-6-
A|-7-7-7-6-7-7-7-6-7-7-7-6-8-3-5-6-
E|-7-7-7-6-7-7-7-6-7-7-7-6-8-3-5-6-

Stave 4:

E|------------------------
B|------------------------
G|------------------------
D|-5-5--3-3--8-8--7-7-----
A|-5-5--3-3--8-8--7-7-----
E|-5-5--3-3--8-8--7-7-----

Stave 5:

E|---------
B|---------
G|-3-5-5-7-
D|-5-3-7-5-
A|---------
E|---------

Stave 6:

E|---------------------
B|---------------------
G|-3-3--5-5--5-5--7-7--
D|-5-5--3-3--7-7--5-5--
A|---------------------
E|---------------------

Stave 7:

E|--------------------
B|--------------------
G|-7-7--3-3--5-5--5-5-
D|-5-5--5-5--3-3--7-7-
A|--------------------
E|--------------------

Stave 8:

E|-------------------------------
B|-------------------------------
G|-3------2------2-2-2-2-2-2-2-2-
D|-5------4------4-0-4-0-4-0-4-0-
A|-------------------------------
E|-------------------------------

Stave 9:

E|---------------------------------
B|---------------------------------
G|-2-2-2-2-2-2-2-2-3-3-3-3-3-3-3-3-
D|-4-0-4-0-4-0-4-0-5-0-5-0-5-0-5-0-
A|---------------------------------
E|---------------------------------

Stave 10:

E|------------------------------
B|------------------------------
G|-5-5-5-5-5-5-5-5-7-5-7-5-7----
D|-7-0-7-0-7-5-7-5-5-5-5-5-5----
A|------------------------------
E|------------------------------

Stave 11:

E|---------------------------------|-------------------------
B|---------------------------------|-------------------------
G|-----3-------3-------3-------3---|---2-----2-----2-----2---
D|-0-5---5-0-5---5-0-5---5-0-5---5-|-0---4-0---4-0---4-0---4-
A|---------------------------------|-------------------------
E|---------------------------------|-------------------------

Stave 12:

E|---------------------------------|-------------------------
B|-------3-------3-------3-------3-|-3-----3-----3-----3-----
G|-----3-------3-------3-------3---|---3-2---3-2---3-2---3-2-
D|-0-5-----0-5-----0-5-----0-5-----|-----------------------4-
A|---------------------------------|-------------------------
E|---------------------------------|-------------------------

Stave 13:

E|----------------5----5-
B|------3----5----5----6-
G|-3----3----5----5----5-
D|-5----5----7----7----7-
A|-----------------------
E|-----------------------

Stave 14:

E|-----5-8-----5-8-----5-8-----5-8-|----10-12----10-12----10-12----10-12-
B|-5-6-----5-6-----5-6-----5-6-----|-10-------10-------10-------10-------
G|---------------------------------|-------------------------------------
D|---------------------------------|-------------------------------------
A|---------------------------------|-------------------------------------
E|---------------------------------|-------------------------------------

Stave 15:

E|-12----10h12p10----10----10---8--
B|-10-------------13-10----9----10-
G|-10----------------10----9----9--
D|---------------------------------
A|---------------------------------
E|---------------------------------

Stave 16:

E|-7----5------------
B|-9----5------------
G|-9----5------------
D|-----------0-0-0-7-
A|-----------0-0-0-7-
E|-----------0-0-0-7-

Stave 17:

E|---------------------------
B|------------------------19-
G|------------------------19-
D|-0-2-3-5-6-7-9-11-12----19-
A|-0-2-3-5-6-7-9-11-12-------
E|-0-2-3-5-6-7-9-11-12-------

http://www.guitartabcreator.com
Guitar Tab Creator is intended to store guitar tab created through the tool. It currently does not support in-line text editing. Any text you place in here will be lost. If you need to comment on your tab, please use the "Tab Notes" section located below.