Sound will begin in 5 seconds

LBW-TBF

01234567891011121314151617181920212223
E
B
G
D
A
E
B
0 1 2 3 4 5 6 7 8 9 10 11 12 13 14 15 16 17 18 19 20 21 22 23
Song Science #1: How Pros Use 6 Chords to Write Hit Songs
(/) Slide Up  (\) Slide Down  (h) Hammer On  (p) Pull Off  (b) Bend (r) Release (v) Vibrato

Stave 1:

E|-------------------------------------------------------
B|-----12-----11-----10-----8-----12-----11-----10-----8-
G|-9-7----9-7----9-7----9-7---9-7----9-7----9-7----9-7---
D|-------------------------------------------------------
A|-------------------------------------------------------
E|-------------------------------------------------------

Stave 2:

E|----------------------------
B|----------------------------
G|-9-7-5-7-5-4-5-4-2-4-2-0----
D|-------------------------2v-
A|----------------------------
E|----------------------------

Stave 3:

E|------------------------------------------------------------
B|------------------------------------------------------------
G|-0-0---0-0--0---0-0---0-0--0---0-0---0-0--0----2-2---2-2--2-
D|-2-2---2-2--2---2-2---2-2--2---3-3---3-3--3----4-4---4-4--4-
A|-2-2---2-2--2---4-4---4-4--4---5-5---5-5--5----5-5---5-5--5-
E|------------------------------------------------------------

Stave 4:

E|-------------------------
B|-------------------------
G|-2-2-----2-2--4--4-------
D|-2-4-x-x-2-4--4--4-------
A|-4-4-x-x-4-4--4--2-------
E|-------------------------

Stave 5:

E|--------------------------------------------------------------7-5-4---
B|----------------------------4-2-1-----------------------------------5-
G|-----2-------2------2-------------3-----2-------2-----2---------------
D|---4-------4------4-------4-----------4-------4-----4-------4---------
A|-4-----4-5------4-----4-5-----------4-----4-5-----4-----4-5-----------
E|----------------------------------------------------------------------

Stave 6:

E|---7-10-----7-10----7-10-----7-15-14-12-10---7-10-----7-10----7-10-----7-5-3-2---
B|-7------7-8-------7------7-8---------------7------7-8-------7------7-8---------3-
G|-------------------------------------------------------------------------------4-
D|---------------------------------------------------------------------------------
A|---------------------------------------------------------------------------------
E|---------------------------------------------------------------------------------

Stave 7:

E|-----------------------------
B|-3---------------------------
G|-4----4----------------------
D|------5----5-----------------
A|-----------7----7----7-----7-
E|----------------9----10----7-

Stave 8:

E|-----------------------------
B|-3-3-------------------------
G|-4-4-4-4---------2-2---------
D|-----5-5-5-5-----4-4---------
A|---------7-7-7-7-----4-4-2-2-
E|-------------9-9-----5-5-3-3-

Stave 9:

E|-----------------
B|-3-3/7-7-5-5-7-7-
G|-4-4-9-9-7-7-6-6-
D|-----------------
A|-----------------
E|-----------------

Stave 10:

E|--------------------------------------10---
B|-3-3-7-7-5-5-7-2--3--5--7--7--10--12--12---
G|-4-4/9-9-7-7-6-3--4--7--6--9--11--12--12---
D|-------------------------------------------
A|-------------------------------------------
E|-------------------------------------------

Stave 11:

E|-5-4------------------------------------------
B|-----5-4--------------------------------------
G|---------5-4-2-4--4-2-2--2----0---------------
D|---------------4--2-4-2--2----2-----------4-4-
A|---------------2--4-4-4--0----2---------2---4-
E|------------------------------------0-2-----2-

http://www.guitartabcreator.com
Guitar Tab Creator is intended to store guitar tab created through the tool. It currently does not support in-line text editing. Any text you place in here will be lost. If you need to comment on your tab, please use the "Tab Notes" section located below.