Sound will begin in 5 seconds

Ima Neka Tajna Veza

01234567891011121314151617181920212223
E
B
G
D
A
E
B
0 1 2 3 4 5 6 7 8 9 10 11 12 13 14 15 16 17 18 19 20 21 22 23
Song Science #1: How Pros Use 6 Chords to Write Hit Songs
(/) Slide Up  (\) Slide Down  (h) Hammer On  (p) Pull Off  (b) Bend (r) Release (v) Vibrato

Stave 1:

E|--3p2p0--7--5h7p5--3p2--0----------------------------0----------3p2p0--7--5h7p5--3p2------------------
B|--0------------------------------7p5--6-----------2--0----------0---------------------------5h7p5-----
G|--0------------------------5--4--5----4--------4-----0----------0---------------------5--4--5---------
D|---------5-----------------7--5--7----6-----4--------2-----------------5--------------7--5--7---------
A|------------5------3------------------5--2-----------2--2/5--4------------5---------------------------
E|--0------------------------5--3--5-------------------0----------0----------------3----5--3--5---------

Stave 2:

E|-------0----12-----0--------7-----0--------7--8--8--7--7--5--3--2--------2--------------------------------8--
B|----2--0-----------0--7--8--------0--7--8-----8-----8-----5--5--4-----4-----------------------------------5--
G|----2--0-----------9--------------9-----------9-----9-----5--4--2--2--------------------------5--4--------5--
D|----4--2--------------------------------------------------------4-----------------------5--4--------7--------
A|----2--2/7------7--------------6--------------------------------2-----------3--2--7--6-----------------5-----
E|-------0--------------------------------------8-----7-----5--3--2--------------------------------------------

Stave 3:

E|----8--8--8-----7--5--------------------7-----------10--8--7--------7-----------7------------7-----------7--
B|-------5--------7-----8--7--------7--8-----------8------------7--------------7------------7-----------7-----
G|-------5--------5-----8--------9--------------9------------------8--------8------------8-----------8--------
D|-------7--------------7------------------------------------------------7------------------------------------
A|-------------6--------------7------------------------------------------------------10-----------9-----------
E|----------------------7--------------------8---------------7------------------------------------------------

Stave 4:

E|--------------7--0--------7--8--------8--7--------7--5--------5--3--------3-----------2-----
B|-----0--7--8-----0--7--8--------8-----------7-----------5-----------5--------------4--------
G|-----9-----------0-----------------9-----------8-----------5-----------4--------2-----------
D|--------------------------------------------------------------------------------------------
A|--7--------------6-----------------------------------------------------------2-----------3--
E|-----------------------------8-----------7-----------5-----------3--------------------------

Stave 5:

E|-------------------------
B|-------------------------
G|----------------5--4-----
D|----------5--4--------7--
A|--2/7--6-----------------
E|-------------------------

http://www.guitartabcreator.com
Guitar Tab Creator is intended to store guitar tab created through the tool. It currently does not support in-line text editing. Any text you place in here will be lost. If you need to comment on your tab, please use the "Tab Notes" section located below.