Sound will begin in 5 seconds

The...

01234567891011121314151617181920212223
E
B
G
D
A
E
B
0 1 2 3 4 5 6 7 8 9 10 11 12 13 14 15 16 17 18 19 20 21 22 23
Song Science #1: How Pros Use 6 Chords to Write Hit Songs
(/) Slide Up  (\) Slide Down  (h) Hammer On  (p) Pull Off  (b) Bend (r) Release (v) Vibrato

Stave 1:

E|---------------------------------------------------
B|---------------------------------------------------
G|---------------------------------------------------
D|--------6-8----------------------------------------
A|-8--8-8-----6-6--6-6-5---------------5-------6-5---
E|-----------------------6--6-6-6--5-6---6---6-----6-

Stave 2:

E|---------------------------
B|---------------------------
G|---------------------------
D|---------------------------
A|-----------1-1-1-1-3-3-3-3-
E|-4-4-4-3h4-----------------

Stave 3:

E|------------------------------------------------------------------
B|------------------------------------------------------------------
G|------------------------------------------------------------------
D|-------10-9-10-----------10-9-10-12-------7-5-7-----------7-5-7---
A|----------------------------------------------------------------5-
E|-8---8---------8-8-8---8------------5---5-------5-5-5---5---------

Stave 4:

E|------------------------------------------------------------------
B|------------------------------------------------------------------
G|------------------------------------------------------------------
D|-------10-9-10-----------10-9-10-12-------7-5-7-----------7-5-7---
A|----------------------------------------------------------------5-
E|-8---8---------8-8-8---8------------5---5-------5-5-5---5---------

Stave 5:

E|--------------------------------------------------------
B|--------------------------------------------------------
G|--------------------------------------------------------
D|--------------------------------------------------------
A|-4--4-4-4-6-3-3--3-4-3-------------------4------8-6---6-
E|-----------------------6-4-6--6-6-6--4-6---6--6-----8---

Stave 6:

E|-----------------------------------------------------
B|-----------------------------------------------------
G|-----------------------------------------------------
D|-----------------------------------------------------
A|-------------3-3--3-4-3--------------8-6-4-6-4-6-4---
E|-9--9-9-9-11------------6-4-6--6-6-6---------------6/

Stave 7:

E|------------------------------------------------------------
B|------------------------------------------------------------
G|------------------------------------------------------------
D|------------------------------------------------------------
A|-------------3-3--3-4-3---------------------8-8-8-8-8-8-8-8-
E|-9--9-9-9-11------------6-4-6-6-6-6-6-6-6-6-----------------

Stave 8:

E|-----------------------
B|-----------------------
G|-----------------------
D|-----------------------
A|-8-8--8-7-8--8-8-8-8-7-
E|-----------------------

Stave 9:

E|---------------------------------------------------------------------------------------
B|---------------------------------------------------------------------------------------
G|---------------------------------------------------------------------------------------
D|-------10---------------10-----10h11p10-8h10p8-6h8p6-----6---------6-------------------
A|-8---8----8-8---11-10-8----6-------------------------6-8---8-6-8-----8-6-4-6-4\3-------
E|---------------------------------------------------------------------------------4/6-4-

http://www.guitartabcreator.com
Guitar Tab Creator is intended to store guitar tab created through the tool. It currently does not support in-line text editing. Any text you place in here will be lost. If you need to comment on your tab, please use the "Tab Notes" section located below.