Sound will begin in 5 seconds

Empathy for my friends

01234567891011121314151617181920212223
E
B
G
D
A
E
B
0 1 2 3 4 5 6 7 8 9 10 11 12 13 14 15 16 17 18 19 20 21 22 23
Song Science #1: How Pros Use 6 Chords to Write Hit Songs
(/) Slide Up  (\) Slide Down  (h) Hammer On  (p) Pull Off  (b) Bend (r) Release (v) Vibrato

Stave 1:

E|------------------------------------------------------------------------------
B|------------------------------------------------------------------------------
G|-----9--9-----9--9-----9--9-----9--9------9--9------9--9------9--9------9--9--
D|------------------------------------------------------------------------------
A|--9--------9------------------------------------------------------------------
E|--------------------9--------9--------12--------12--------12--------12--------

Stave 2:

E|------------------------------------------------------------------------------
B|------------------------------------------------------------------------------
G|-----9--9-----9--9-----9--9-----9--9------9--9------9--9------9--9------9--9--
D|------------------------------------------------------------------------------
A|--9--------9------------------------------------------------------------------
E|--------------------9--------9--------12--------12--------12--------12--------

Stave 3:

E|------------------------------------------------------------------------------------
B|------------------------------------------------------------------------------------
G|-------------9--9-----9--9-----9--9-------------9--9------9--9------9--9------9--9--
D|------------------------------------------------------------------------------------
A|--12--11--9--------9----------------------------------------------------------------
E|----------------------------9--------9--10--12--------12--------12--------12--------

Stave 4:

E|--------------------------------------------------------------------------------
B|--------------------------------------------------------------------------------
G|--------------------------------------------------------------------------------
D|-----11--9--9--11--11--11--9--9--11--11-----11--9--9--11--11--11--9--9--11--11--
A|--0--------------------------------------0--------------------------------------
E|--------------------------------------------------------------------------------

Stave 5:

E|-------------------------------------------------------------------------------------
B|-------------------------------------------------------------------------------------
G|-------------------------------------------------------------------------------------
D|------11--9--9--11--11--11--9--9--11--11------11--9--9--11--11--11--9--9--11--11-----
A|----------------------------------------------------------------------------------0--
E|--10--------------------------------------12-----------------------------------------

Stave 6:

E|----------------------------------------
B|----------------------------------------
G|----------------------------------------
D|--9--9--11--6--6--7--9--9--11--6--6--7--
A|----------------------------------------
E|----------------------------------------

Stave 7:

E|-----------------------------------------------------------------
B|-----------------------------------------------------------------
G|-----------------------------------------------------------------
D|-------------11-----11-----11-----11-----9-----9-----9-----9-----
A|--12--11--9------9------9------9------7-----7-----7-----7--------
E|--------------------------------------------------------------0--

http://www.guitartabcreator.com
Guitar Tab Creator is intended to store guitar tab created through the tool. It currently does not support in-line text editing. Any text you place in here will be lost. If you need to comment on your tab, please use the "Tab Notes" section located below.