Sound will begin in 5 seconds

חריימה

01234567891011121314151617181920212223
E
B
G
D
A
E
B
0 1 2 3 4 5 6 7 8 9 10 11 12 13 14 15 16 17 18 19 20 21 22 23
Song Science #1: How Pros Use 6 Chords to Write Hit Songs
(/) Slide Up  (\) Slide Down  (h) Hammer On  (p) Pull Off  (b) Bend (r) Release (v) Vibrato

Stave 1:

E|-------------------------------------------------------------------
B|-------------------------------------------------------------------
G|-------------------------------------------------------------------
D|-------------------------------------------------------------------
A|-------0-2-3-2h3p2p0-------0-2-------------0-2-3-2h3p2p0-----------
E|-0-1-4---------------0-1-4-----------0-1-4---------------0-1-4-1-0-

Stave 2:

E|--------------------------------------------------------------------
B|--------------------------------------------------------------------
G|--------------------------------------------------------------------
D|--------------------------------------------------------------------
A|-------0-2-3-2h3p2p0-------0-2-3-2----------0-2-3-2h3p2p0-----------
E|-0-1-4---------------0-1-4------------0-1-4---------------0-1-4-1-0-

Stave 3:

E|-1-0h1p0----------------------------------------
B|---------3-1-3-1h3p1p0--------------------------
G|-----------------------2-4-2h4p2\1---1-2-2/4----
D|-----------------------------------3------------
A|------------------------------------------------
E|------------------------------------------------

Stave 4:

E|-------------------------------------------
B|-------------------------------------------
G|-------------------------------------------
D|-3-2h3p2p0---------------------------------
A|-----------3-5-3h5p3\2-0-2-0h2p0-----------
E|---------------------------------4-1-4-1-0-

Stave 5:

E|-------------------------------------1h3p1p0-
B|-------------------------------0-1-3---------
G|---------------------------1-2---------------
D|-----------------0-2-2-2-3-------------------
A|-----------0-2-3-----------------------------
E|-0-0-0-1-4-----------------------------------

Stave 6:

E|-------------------------------------3h5p3p0-
B|-------------------------------0-1-3---------
G|---------------------------0-1---------------
D|-----------------0-2-2-2-3-------------------
A|-----------0-2-3-----------------------------
E|-0-0-0-1-4-----------------------------------

Stave 7:

E|-1-0------------------------------------------
B|-----3-1-0------------------------------------
G|-----------2-1--------------------------------
D|---------------2-2/3----3-2-0-----------------
A|------------------------------3-2-0-----------
E|------------------------------------4-1h4p1p0-

Stave 8:

E|-1-1-1-0----------------------------------------------
B|---------3-1-0----------------------------------------
G|---------------2-1------------------------------------
D|-------------------2-2/3----3-3-3-2-0-----------------
A|--------------------------------------3-2-0-----------
E|--------------------------------------------4-1h4p1p0-

http://www.guitartabcreator.com
Guitar Tab Creator is intended to store guitar tab created through the tool. It currently does not support in-line text editing. Any text you place in here will be lost. If you need to comment on your tab, please use the "Tab Notes" section located below.