Sound will begin in 5 seconds

His Tribulation

01234567891011121314151617181920212223
E
B
G
D
A
E
B
0 1 2 3 4 5 6 7 8 9 10 11 12 13 14 15 16 17 18 19 20 21 22 23
Song Science #1: How Pros Use 6 Chords to Write Hit Songs
(/) Slide Up  (\) Slide Down  (h) Hammer On  (p) Pull Off  (b) Bend (r) Release (v) Vibrato

Stave 1:

E|--------------------------3-----------------------------------------------3-----------------------
B|--0--2--3--2--5--3--2--3-----5--3--0--2--0--2--3--0--2--3--2--5--3--2--3-----5--3--0--2--0--5--7--
G|--------------------------------------------------------------------------------------------------
D|--------------------------------------------------------------------------------------------------
A|--------------------------------------------------------------------------------------------------
E|--------------------------------------------------------------------------------------------------

Stave 2:

E|--------------------------5-----------5-----5--8--------------------------5-----------------------
B|--3--3--5--3--8--6--5--6-----6--5--------6--------3--3--5--3--8--6--5--6-----6--5-----5-----------
G|-----------------------------------7-----------------------------------------------7-----7--5--3--
D|--------------------------------------------------------------------------------------------------
A|--------------------------------------------------------------------------------------------------
E|--------------------------------------------------------------------------------------------------

Stave 3:

E|-----------3--2--------------------------------
B|--0--3--2--------------------------------------
G|-----------------------------------------------
D|-----------------------------------------------
A|-----------------------------------------------
E|-----------------------------------------------

Stave 4:

E|--3p2------------------------------------------------------------------
B|-------3--2--3--2------------------------------------------------------
G|-------------------3---------------------------------------------------
D|----------------------5/8--6--5-----5----------------------------------
A|---------------------------------6-----6--5--3--2--2--2--2--2--2/14\2--
E|-----------------------------------------------------------------------

Stave 5:

E|-------------------------------------------------------------------------------------------------
B|-------------------------------------------------------------------------------------------------
G|--------------4-----------------------4-------------------------------------------------------2--
D|--4-----------------------4-----------------------4-----------5-----------4-----4--5----5--4-----
A|-----2--0--2-----2--0--2-----2--0--2-----2--0--2-----2--0--2-----2--0--2-----2-------------------
E|-------------------------------------------------------------------------------------------------

Stave 6:

E|--------------------------------------------------------------------------------------------------
B|--------------------------------------------------------------------------------------------------
G|--------------4-----------------------4-----------------------------------------------------------
D|--4-----------------------4-----------------------4-----------5-----------4-----4--5--2-----------
A|-----2--0--2-----2--0--2-----2--0--2-----2--0--2-----2--0--2-----2--0--2-----2-----------5--4--0--
E|--------------------------------------------------------------------------------------------------

Stave 7:

E|--------------------------------------------------------------------------------------------------
B|--------------------------------------------------------------------------------------------------
G|--------------------------------------------------------------------------------------------------
D|--9-----------9-----------9-----------------------9-----------9-----------9--------------------5--
A|--------------------------------------9--7--5--7--------------------------------------7--5--4-----
E|-----5--0--5-----5--0--5-----5--0--5-----------------5--0--5-----5--0--5-----5--0--5--------------

Stave 8:

E|--------------------------------------------------------------------------------------
B|--------------------------------------------------------------------------------------
G|--------------------------------------------------------------------------------------
D|--8-----------8-----------8-----------------------4-----------------------------------
A|--------------------------------------7--5--4--5-----5--------------------------------
E|-----4--0--4-----4--0--4-----4--0--4--------------------7--4--7--5--4--2--5--4--2--0--

Stave 9:

E|--
B|--
G|--
D|--
A|--
E|--

Stave 10:

E|--------------------------------------------------------------------------------------------------
B|--------------------------------------------------------------------------------------------------
G|--------------4-----------------------4-----------------------------------------------------------
D|--4-----------------------4-----------------------4-----------5-----------4-----4--5--4-----------
A|-----2--0--2-----2--0--2-----2--0--2-----2--0--2-----2--0--2-----2--0--2-----2-----------5--------
E|--------------------------------------------------------------------------------------------7--5--

Stave 11:

E|--------------------------------------------------------------------------------
B|--------------------------------------------------------------------------------
G|--------------------------------------------------------------------------------
D|--------------------------------------------------------------------------5--7--
A|-----------------5-----5--4--------------5-----5--7--------------------5--------
E|--5--5--5--7--5-----7--------5--5--5--7-----7--------5--5--5--9--5--7-----------

Stave 12:

E|-------------------------------------------------------
B|-----------------------------------------------------7\
G|--------------------------------4-----4--6--9--7--6----
D|-----------------------4-----5-----5-------------------
A|--7--5--4--5-----4--5-----7----------------------------
E|--------------7----------------------------------------

Stave 13:

E|--
B|--
G|--
D|--
A|--
E|--

http://www.guitartabcreator.com
Guitar Tab Creator is intended to store guitar tab created through the tool. It currently does not support in-line text editing. Any text you place in here will be lost. If you need to comment on your tab, please use the "Tab Notes" section located below.