Sound will begin in 5 seconds

Track 3 Bass Tab

01234567891011121314151617181920212223
E
B
G
D
A
E
B
0 1 2 3 4 5 6 7 8 9 10 11 12 13 14 15 16 17 18 19 20 21 22 23
Song Science #1: How Pros Use 6 Chords to Write Hit Songs
(/) Slide Up  (\) Slide Down  (h) Hammer On  (p) Pull Off  (b) Bend (r) Release (v) Vibrato

Stave 1:

E|------------------------------------------------------------------------------------------
G|-----12---------12---------12-----11-----10--------9--------------------------------------
D|---------12---------12-----------------------9--------8-----------------------------------
A|------------------------------------------------------------------------------------------
E|------------------------------------------------------------------------------------------
B|--3----------3----------3------3------3---------3--------3--3--0--0--0--3--3--0--0--0--12/

Stave 2:

E|--------------------------------------------------
G|--------------------------------------------------
D|-------------------------------------------0h5h7--
A|-----------------5-----4h5p4--------0h5h7---------
E|-----5--7-----------7---------5--5----------------
B|--0--------0--0-----------------------------------

Stave 3:

E|--------------------------------------------------------------------------------------------
G|--------0h4-----4p0-----0h4--4--------0h5-----5p0-----0h5--5--------0h7-----7p0-----0h7--7--
D|--2--2-------2-------2----------3--3-------3-------3----------5--5-------5-------5----------
A|--------------------------------------------------------------------------------------------
E|--------------------------------------------------------------------------------------------
B|--------------------------------------------------------------------------------------------

Stave 4:

E|-----------------------------------------------------------------
G|--------0h7-----7p0-----0h7--7-----------------------------------
D|--------------------------------------------------------0--0--0--
A|--5--5-------5-------5----------------5--------5--------6--6--6--
E|--------------------------------6--6--6--6--6--6--5--5--5--5--5--
B|-----------------------------------------------------------------

http://www.guitartabcreator.com
Guitar Tab Creator is intended to store guitar tab created through the tool. It currently does not support in-line text editing. Any text you place in here will be lost. If you need to comment on your tab, please use the "Tab Notes" section located below.