Sound will begin in 5 seconds

Deadshot

01234567891011121314151617181920212223
E
B
G
D
A
E
B
0 1 2 3 4 5 6 7 8 9 10 11 12 13 14 15 16 17 18 19 20 21 22 23
Song Science #1: How Pros Use 6 Chords to Write Hit Songs
(/) Slide Up  (\) Slide Down  (h) Hammer On  (p) Pull Off  (b) Bend (r) Release (v) Vibrato

Stave 1:

E|--------------------------------------------------
B|--------------------------------------------------
G|----------15----------15----------15----------15--
D|------15----------15----------15----------15------
A|--13----------13----------13----------13----------
E|--------------------------------------------------

Stave 2:

E|--------------------------
B|--------------------------
G|--------------------------
D|--------------------------
A|--13b13b13b13b13b13b13b11b
E|--------------------------

Stave 3:

E|-----
B|-----
G|--3--
D|--3--
A|--1--
E|-----

Stave 4:

E|--------------
B|--------------
G|-----8--4--3--
D|--3--8--4--3--
A|--3--6--2--1--
E|--1-----------

Stave 5:

E|-----------------------------------------------------------
B|--11--11--11--11--11--11--12--11--12--14--12--11h12p11--9--
G|-----------------------------------------------------------
D|-----------------------------------------------------------
A|-----------------------------------------------------------
E|-----------------------------------------------------------

Stave 6:

E|----------------------------------------------
B|--11--11--11--11--11--12--11--12--14--12--11--
G|----------------------------------------------
D|----------------------------------------------
A|----------------------------------------------
E|----------------------------------------------

Stave 7:

E|------------------------------------------------------------------------------------------------------
B|--11--11--11--11--11--12--11--12--14--12--11--12--11h12p11--9--7--7--7--7--7--7--10--10--10--9--9--9--
G|------------------------------------------------------------------------------------------------------
D|------------------------------------------------------------------------------------------------------
A|------------------------------------------------------------------------------------------------------
E|------------------------------------------------------------------------------------------------------

http://www.guitartabcreator.com
Guitar Tab Creator is intended to store guitar tab created through the tool. It currently does not support in-line text editing. Any text you place in here will be lost. If you need to comment on your tab, please use the "Tab Notes" section located below.