Sound will begin in 5 seconds

Ocean

01234567891011121314151617181920212223
E
B
G
D
A
E
B
0 1 2 3 4 5 6 7 8 9 10 11 12 13 14 15 16 17 18 19 20 21 22 23
Song Science #1: How Pros Use 6 Chords to Write Hit Songs
(/) Slide Up  (\) Slide Down  (h) Hammer On  (p) Pull Off  (b) Bend (r) Release (v) Vibrato

Stave 1:

E|---------------------
B|---------------------
G|---------------------
D|---------------------
A|--8--10--6--8--3--3--
E|---------------------

Stave 2:

E|---------------------
B|---------------------
G|---------------------
D|---------------------
A|--8--10--6--8--1--3--
E|---------------------

Stave 3:

E|---------------------------------------------------------
B|---------------------------------------------------------
G|---------------------------------------------------------
D|---------------------------------------------------------
A|---------------------------------------------------------
E|--7--7--6--7--6--7--6--6--7--7--9--10--9--7--6--6--6--6--

Stave 4:

E|---------------------------------------------------------
B|---------------------------------------------------------
G|---------------------------------------------------------
D|---------------------------------------------------------
A|---------------------------------------------------------
E|--7--7--6--7--6--7--6--6--7--7--9--10--9--7--6--6--6--3--

Stave 5:

E|--------------------------------------------
B|--------------------------------------------
G|----------------------------------------14--
D|---------15--15--12---------15--15--12------
A|-----13-----------------13------------------
E|--0------------------0----------------------

Stave 6:

E|------------------------------------------------------------
B|------------------------------------------------------------
G|------------------------------------------------------------
D|------------------------------------------------------------
A|--5--5--7--8--7--5--3--3--3--5--5--5--7--8--10--8--7--5--3--
E|------------------------------------------------------------

Stave 7:

E|---------------------------------------------------------
B|---------------------------------------------------------
G|---------------------------------------------------------
D|---------------------------------------------------------
A|--3--3--5--7--7--8--7--5--3--5--5--7--8--10--8--7--5--3--
E|---------------------------------------------------------

Stave 8:

E|--------------------------------------------------------------
B|--------------------------------------------------------------
G|--------------------------------------------------------------
D|--------------------------------------------------------------
A|-----5--7--3--5-----5--7--3--5-----5--7--3--5-----5--7--3--5--
E|--0--------------0--------------0--------------0--------------

Stave 9:

E|-----
B|-----
G|-----
D|-----
A|--5--
E|-----

http://www.guitartabcreator.com
Guitar Tab Creator is intended to store guitar tab created through the tool. It currently does not support in-line text editing. Any text you place in here will be lost. If you need to comment on your tab, please use the "Tab Notes" section located below.