Sound will begin in 5 seconds

Shayne Ward - MHWTYB

Chords
01234567891011121314151617181920212223
E
B
G
D
A
E
B
0 1 2 3 4 5 6 7 8 9 10 11 12 13 14 15 16 17 18 19 20 21 22 23
Song Science #1: How Pros Use 6 Chords to Write Hit Songs
(/) Slide Up  (\) Slide Down  (h) Hammer On  (p) Pull Off  (b) Bend (r) Release (v) Vibrato

Stave 1:

E|--9---10---------------------------|--
B|--11--11--8---8---8---8--6--8---6--|--
G|--12--10--8---8---8---8--7--8---7--|--
D|--11--12--10--10--10--8--8--10--8--|--
A|--_-------------------------------|--
E|--_-------------------------------|--

Stave 2:

E|----6--|----|--6--|----|------|----|--6--|----|--4--|----|--3--|-----|-----|-----|----|----|----
B|----6--|----|--6--|----|--8---|----|--6--|----|--4--|----|--4--|--8--|--6--|--8--|----|----|----
G|----7--|----|--7--|----|--8---|----|--7--|----|--5--|----|--3--|--7--|--7--|--7--|----|----|----
D|----8--|----|--8--|----|--10--|----|--8--|----|--6--|----|--5--|--8--|--8--|--8--|----|----|----
A|-------|----|-----|----|------|----|-----|----|-----|----|-----|--7--|-----|-----|----|----|----
E|-------|----|-----|----|------|----|-----|----|-----|----|-----|-----|-----|-----|----|----|----

Stave 3:

E|--6--|------|----------|------|------|--6--|----------------|------------|-----|--
B|--6--|------|----------|--11--|--11--|--6--|--8-----8---8---|--8--6--8---|--6--|--
G|--7--|--10--|--8---10--|--10--|--10--|--7--|--8-----8---8---|--8--7--8---|--7--|--
D|--8--|--10--|--8---10--|--8---|--11--|--8--|--10----10--10--|--8--8--10--|--8--|--
A|--8--|--12--|--10--12--|--10--|--10--|--8--|----------------|------------|-----|--
E|----|------|----------|------|------|-----|----------------|------------|-----|--

http://www.guitartabcreator.com
Guitar Tab Creator is intended to store guitar tab created through the tool. It currently does not support in-line text editing. Any text you place in here will be lost. If you need to comment on your tab, please use the "Tab Notes" section located below.