Sound will begin in 5 seconds

Tríades Maiores, Menores, Aumentadas e Diminutas (Vertical)

01234567891011121314151617181920212223
E
B
G
D
A
E
B
0 1 2 3 4 5 6 7 8 9 10 11 12 13 14 15 16 17 18 19 20 21 22 23
Song Science #1: How Pros Use 6 Chords to Write Hit Songs
(/) Slide Up  (\) Slide Down  (h) Hammer On  (p) Pull Off  (b) Bend (r) Release (v) Vibrato

Stave 1:

E|--2-----------------5------------------10----------------------
B|-----3-----------------7-------------------10------------------
G|--------2-----------------7--------------------11--------------
D|-----------4-----------------7---------------------12----------
A|--------------5-----------------9----------------------12------
E|-----------------5-----------------10----------------------14--

Stave 2:

E|--1-----------------5------------------10----------------------
B|-----3-----------------6-------------------10------------------
G|--------2-----------------7--------------------10--------------
D|-----------3-----------------7---------------------12----------
A|--------------5-----------------8----------------------12------
E|-----------------5-----------------10----------------------13--

Stave 3:

E|--2-----------------6------------------10----------------------
B|-----3-----------------7-------------------11------------------
G|--------3-----------------7--------------------11--------------
D|-----------4-----------------8---------------------12----------
A|--------------5-----------------9----------------------13------
E|-----------------6-----------------10----------------------14--

Stave 4:

E|--1-----------------4------------------10--10---------------------
B|-----3-----------------6-----------------------9------------------
G|--------1-----------------7-----------------------10--------------
D|-----------3-----------------6------------------------12----------
A|--------------5-----------------8-------------------------11------
E|-----------------4-----------------10-------------------------13--

Stave 5:

E|--------1-----------------------------------------
B|-----1-----1--------1-----------------------------
G|--1--------------1-----1--------1-----------------
D|--------------1--------------1-----1--------1-----
A|--------------------------1--------------1-----1--
E|--------------------------------------1-----------

http://www.guitartabcreator.com
Guitar Tab Creator is intended to store guitar tab created through the tool. It currently does not support in-line text editing. Any text you place in here will be lost. If you need to comment on your tab, please use the "Tab Notes" section located below.