Sound will begin in 5 seconds

Tríades Maiores, Menores, Aumentadas e Diminutas (Horizontal)

01234567891011121314151617181920212223
E
B
G
D
A
E
B
0 1 2 3 4 5 6 7 8 9 10 11 12 13 14 15 16 17 18 19 20 21 22 23
Song Science #1: How Pros Use 6 Chords to Write Hit Songs
(/) Slide Up  (\) Slide Down  (h) Hammer On  (p) Pull Off  (b) Bend (r) Release (v) Vibrato

Stave 1:

E|--------2-----------2-----------5-----------5-------------10--------------10------
B|-----3-----3-----3-----3-----7-----7-----7-----7------10------10------10------10--
G|--2-----------2-----------7-----------7-----------11--------------11--------------
D|----------------------------------------------------------------------------------
A|----------------------------------------------------------------------------------
E|----------------------------------------------------------------------------------

Stave 2:

E|----------------------------------------------------------------------------------
B|--------3-----------3-----------7-----------7-------------10--------------10------
G|-----2-----2-----2-----2-----7-----7-----7-----7------11------11------11------11--
D|--4-----------4-----------7-----------7-----------12--------------12--------------
A|----------------------------------------------------------------------------------
E|----------------------------------------------------------------------------------

Stave 3:

E|----------------------------------------------------------------------------------
B|----------------------------------------------------------------------------------
G|--------2-----------2-----------7-----------7-------------11--------------11------
D|-----4-----4-----4-----4-----7-----7-----7-----7------12------12------12------12--
A|--5-----------5-----------9-----------9-----------12--------------12--------------
E|----------------------------------------------------------------------------------

Stave 4:

E|------------------------------------------------------------------------------------
B|------------------------------------------------------------------------------------
G|------------------------------------------------------------------------------------
D|--------4-----------4------------7------------7-------------12--------------12------
A|-----5-----5-----5-----5------9-----9------9-----9------12------12------12------12--
E|--5-----------5-----------10-----------10-----------14--------------14--------------

http://www.guitartabcreator.com
Guitar Tab Creator is intended to store guitar tab created through the tool. It currently does not support in-line text editing. Any text you place in here will be lost. If you need to comment on your tab, please use the "Tab Notes" section located below.