Sound will begin in 5 seconds

Exercícios de Abertura 1

01234567891011121314151617181920212223
E
B
G
D
A
E
B
0 1 2 3 4 5 6 7 8 9 10 11 12 13 14 15 16 17 18 19 20 21 22 23
Song Science #1: How Pros Use 6 Chords to Write Hit Songs
(/) Slide Up  (\) Slide Down  (h) Hammer On  (p) Pull Off  (b) Bend (r) Release (v) Vibrato

Stave 1:

E|-------------------------------5--7-----------------------------
B|-------------------------5--7--------5--7-----------------------
G|-------------------5--7--------------------5--7-----------------
D|-------------5--7--------------------------------5--7-----------
A|-------5--7--------------------------------------------5--7-----
E|--5--7-----------------------------------------------------------

Stave 2:

E|-------------------------------5--8--------------------------
B|-------------------------5--8--------5--8--------------------
G|-------------------5--8--------------------5--8--------------
D|-------------5--8--------------------------------5--8--------
A|-------5--8--------------------------------------------5--8--
E|--5--8--------------------------------------------------------

Stave 3:

E|-------------------------------5--9--------------------------
B|-------------------------5--9--------5--9--------------------
G|-------------------5--9--------------------5--9--------------
D|-------------5--9--------------------------------5--9--------
A|-------5--9--------------------------------------------5--9--
E|--5--9--------------------------------------------------------

Stave 4:

E|--_-----------------
B|--_-----------------
G|--_-----------------
D|--_-----------------
A|--_-----------------
E|--12--14--16--18-----

http://www.guitartabcreator.com
Guitar Tab Creator is intended to store guitar tab created through the tool. It currently does not support in-line text editing. Any text you place in here will be lost. If you need to comment on your tab, please use the "Tab Notes" section located below.