Sound will begin in 5 seconds

Blues Lead 1

01234567891011121314151617181920212223
E
B
G
D
A
E
B
0 1 2 3 4 5 6 7 8 9 10 11 12 13 14 15 16 17 18 19 20 21 22 23
Song Science #1: How Pros Use 6 Chords to Write Hit Songs
(/) Slide Up  (\) Slide Down  (h) Hammer On  (p) Pull Off  (b) Bend (r) Release (v) Vibrato

Stave 1:

E|--------------------------------------|--------------------8--5-----5v--|--
B|--------------------------------------|--8b10--8--5--------------8------|--
G|----7b9--7--5--7---------------5------|--------------5--7---------------|--
D|------------------7--5h7--5h7-----7v--|---------------------------------|--
A|--------------------------------------|---------------------------------|--
E|--------------------------------------|---------------------------------|--

Stave 2:

E|------12b15--12--11--10--8-------------8----------|------------------8--5-----5-----------
B|--10------------------------10v--8h10-----10--10--|------------------------8-----5--8b10--
G|--------------------------------------------------|--7b9--7p5--7--------------------------
D|--------------------------------------------------|---------------7-----------------------
A|--------------------------------------------------|---------------------------------------
E|--------------------------------------------------|---------------------------------------

http://www.guitartabcreator.com
Guitar Tab Creator is intended to store guitar tab created through the tool. It currently does not support in-line text editing. Any text you place in here will be lost. If you need to comment on your tab, please use the "Tab Notes" section located below.