Sound will begin in 5 seconds

Mol 2-5-1 Locrian nat. 9

01234567891011121314151617181920212223
E
B
G
D
A
E
B
0 1 2 3 4 5 6 7 8 9 10 11 12 13 14 15 16 17 18 19 20 21 22 23
Song Science #1: How Pros Use 6 Chords to Write Hit Songs
(/) Slide Up  (\) Slide Down  (h) Hammer On  (p) Pull Off  (b) Bend (r) Release (v) Vibrato

Stave 1:

E|--------------------------------------------------|--------------------------|--
B|--------------------------------------------------|--------------------------|--
G|--------------------------------------------------|--------------------------|--
D|-----------5-----------7--7-----------5-----------|-----------5--7-----------|--
A|--------6--------5--8--------8--5--------6--------|--------6--------8--5-----|--
E|--5--8--------7--------------------7--------8--5--|--5--8-----------------7--|--

Stave 2:

E|--------------------------------------------------|--------------------------|--
B|--------------------------------------------------|--------------------------|--
G|-----------3-----------5--5-----------3-----------|-----------3--5-----------|--
D|--------4--------3--6--------6--3--------4--------|--------4--------6--3-----|--
A|--3--6--------5--------------------5--------6--3--|--3--6-----------------5--|--
E|--------------------------------------------------|--------------------------|--

Stave 3:

E|--------------------------------------------------------|--
B|------------8------------10--10------------8------------|--
G|---------8--------7--10----------10--7--------8---------|--
D|--7--10--------9------------------------9--------10--7--|--
A|--------------------------------------------------------|--
E|--------------------------------------------------------|--

Stave 4:

E|-----------6-----------8--8-----------6-----------|--
B|--------7--------6--9--------9--6--------7--------|--
G|--5--8--------7--------------------7--------8--5--|--
D|--------------------------------------------------|--
A|--------------------------------------------------|--
E|--------------------------------------------------|--

http://www.guitartabcreator.com
Guitar Tab Creator is intended to store guitar tab created through the tool. It currently does not support in-line text editing. Any text you place in here will be lost. If you need to comment on your tab, please use the "Tab Notes" section located below.