Sound will begin in 5 seconds

half sweep licks

01234567891011121314151617181920212223
E
B
G
D
A
E
B
0 1 2 3 4 5 6 7 8 9 10 11 12 13 14 15 16 17 18 19 20 21 22 23
Song Science #1: How Pros Use 6 Chords to Write Hit Songs
(/) Slide Up  (\) Slide Down  (h) Hammer On  (p) Pull Off  (b) Bend (r) Release (v) Vibrato

Stave 1:

E|--11--------10--------9--------8--------|--
B|------9---------8--------7--------6-----|--
G|---------8---------7--------6--------5--|--
D|----------------------------------------|--
A|----------------------------------------|--
E|----------------------------------------|--

Stave 2:

E|--11-------------------|--
B|------9-----11---------|--
G|---------8------10-----|--
D|--------------------8--|--
A|-----------------------|--
E|-----------------------|--

Stave 3:

E|--3--------4--------6--------8---------10----------11----------13----------15--|--------
B|-----4--------6--------8--------9----------11----------13----------15----------|--------
G|--------5--------5--------7--------10----------12----------12----------13------|--------
D|-------------------------------------------------------------------------------|--------
A|-------------------------------------------------------------------------------|--------
E|-------------------------------------------------------------------------------|--------

Stave 4:

E|--11------------------------------------------------------
B|------9-----11----------------9----------8--------7-------
G|---------8------10---------------8----------7--------6\5--
D|--------------------8---------------6----------5----------
A|-----------------------11--8------------------------------
E|----------------------------------------------------------

Stave 5:

E|--------------------------------------------------------|--------------------
B|--------------------------------------------------------|--------------------
G|------------------------------8--------10--9--------11--|--------------------
D|--8--------10----9--------11-----8------------9---------|--------------------
A|-----8--------------9---------------8------------9------|--------------------
E|--------8--------------9--------------------------------|--------------------

Stave 6:

E|-----------------------8--------11----------13-----
B|--8--------11-------------8---------11-------------
G|-----8---------10------------8----------10---------
D|--------8----------10------------------------------
A|---------------------------------------------------
E|---------------------------------------------------

http://www.guitartabcreator.com
Guitar Tab Creator is intended to store guitar tab created through the tool. It currently does not support in-line text editing. Any text you place in here will be lost. If you need to comment on your tab, please use the "Tab Notes" section located below.