Sound will begin in 5 seconds

Dual arpeggios, A7 (startende fra G) og C#m7b5 (samme som A7 plus en 9'er)

01234567891011121314151617181920212223
E
B
G
D
A
E
B
0 1 2 3 4 5 6 7 8 9 10 11 12 13 14 15 16 17 18 19 20 21 22 23
Song Science #1: How Pros Use 6 Chords to Write Hit Songs
(/) Slide Up  (\) Slide Down  (h) Hammer On  (p) Pull Off  (b) Bend (r) Release (v) Vibrato

Stave 1:

E|--------------------------------|--------------------------7--9--|--
B|--------------------------------|-----------5--8--------8--------|--
G|--------------------------4--6--|--------6--------6--9-----------|--
D|-----------2--5--------5--------|--5--7--------------------------|--
A|--------4--------4--7-----------|--------------------------------|--
E|--3--5--------------------------|--------------------------------|--

Stave 2:

E|--------------------------------|--------------------------6--9--|--
B|--------------------------------|-----------6--8--------8--------|--
G|--------------------------3--6--|--------6--------6--8-----------|--
D|-----------3--5--------5--------|--5--8--------------------------|--
A|--------4--------4--6-----------|--------------------------------|--
E|--3--6--------------------------|--------------------------------|--

http://www.guitartabcreator.com
Guitar Tab Creator is intended to store guitar tab created through the tool. It currently does not support in-line text editing. Any text you place in here will be lost. If you need to comment on your tab, please use the "Tab Notes" section located below.