Sound will begin in 5 seconds

among us

01234567891011121314151617181920212223
E
B
G
D
A
E
B
0 1 2 3 4 5 6 7 8 9 10 11 12 13 14 15 16 17 18 19 20 21 22 23
Song Science #1: How Pros Use 6 Chords to Write Hit Songs
(/) Slide Up  (\) Slide Down  (h) Hammer On  (p) Pull Off  (b) Bend (r) Release (v) Vibrato

Stave 1:

E|------------------------------------------------------------
B|------------------------------------------------------------
G|------------------------------------------------------------
D|------------------------------------------------------------
A|-----------5-------------5--5-----------5-------------7--5--
E|--0--5--7-------0--5--7--------0--5--7-------0--5--7--------

Stave 2:

E|------------------------------------------------------------
B|------------------------------------------------------------
G|------------------------------------------------------------
D|-----------5-------------5--5-----------5-------------7--5--
A|--0--4--5-------0--4--5--------0--4--5-------0--4--5--------
E|------------------------------------------------------------

Stave 3:

E|-------------------------------------------------------------
B|-------------------------------------------------------------
G|-------------------------------------------------------------
D|-------------------------------------------------------------
A|-----------5-------------5--5--5-------5-------7-------7-----
E|--0--5--7-------0--5--7-----------3-------3-------5-------5--

Stave 4:

E|-------------------------------------------------------------
B|-------------------------------------------------------------
G|-------------------------------------------------------------
D|-------------------------------------------------------------
A|-------------------------------------------------------------
E|--8----8\0--------3----\0------5--5--3/5--5----5--5--3/5--5--

Stave 5:

E|---------------------------------------------------
B|---------------------------------------------------
G|---------------------------------------------------
D|---------------------------------------------------
A|------------5--------------------5--5--5--5--5--5--
E|--8----3---------5--7--8----3----------------------

Stave 6:

E|----------------------------------------------------------------------------------
B|----------------------------------------------------------------------------------
G|----------------------------------------------------------------------------------
D|----------------------------------------------------------------------------------
A|--12--0--10--0--0--0--12--0--10--0--0--0--12--0--10--0--0--0--14--0--10--0--0--0--
E|----------------------------------------------------------------------------------

Stave 7:

E|-----------------------------------------------
B|-----------------------------------------------
G|-----------------------------------------------
D|-----------------------------------------------
A|--7----9--7--5----3--2----3----5--3--2----6----
E|-----------------------------------------------

Stave 8:

E|------------------------------------------------
B|------------------------------------------------
G|------------------------------------------------
D|------------------------------------------------
A|--2--2----0--0----------------------------------
E|------------------3--3----3--3----3--3----3--3--

Stave 9:

E|-----------------------------------------------------------------------------------
B|-----------------------------------------------------------------------------------
G|-----------------------------------------------------------------------------------
D|-----------------------------------------------------------------------------------
A|--12--0--10--0--0--0--12--0--10--0--0--0--12--0--10--0--8--0--7--0--5--0--3--0-----
E|--------------------------------------------------------------------------------5--

http://www.guitartabcreator.com
Guitar Tab Creator is intended to store guitar tab created through the tool. It currently does not support in-line text editing. Any text you place in here will be lost. If you need to comment on your tab, please use the "Tab Notes" section located below.