Sound will begin in 5 seconds

Francisco Tárrega - El Columpio

Chords
01234567891011121314151617181920212223
E
B
G
D
A
E
B
0 1 2 3 4 5 6 7 8 9 10 11 12 13 14 15 16 17 18 19 20 21 22 23
(/) Slide Up  (\) Slide Down  (h) Hammer On  (p) Pull Off  (b) Bend (r) Release (v) Vibrato

Stave 1:

E|--2--3--5--5--5--5-----------7--9---10--12--14--14--14-----------
B|--3--5--7--7--7--7-----------8--10--12--14--15--15--15-----------
G|-----------------------------------------------------------------
D|-----------0-----------0--------------------0--------------0-----
A|--------0-----0-----0-----0---------0-----------0-------0-----0--
E|--0--------------0-----------0----------------------0------------

Stave 2:

E|--12b15--12--10--9---10--12--12--12------10------10b12--10--9---9h10--9---7--5-----------
B|---------14--12--10--12--14--14--14------12--12---------12--10--------10--8--7-----------
G|---------------------------------14----------12------------------------------------------
D|-----------------------------14------14--------------------------------------------0-----
A|---------0-------------------------------0--------------0-------------0---------0-----0--
E|-----------------------------------------------------------------------------0-----------

Stave 3:

E|--2--3--5--5--5--5-----------7--9---10--12--14--14--14-----------
B|--3--5--7--7--7--7-----------8--10--12--14--15--15--15-----------
G|-----------------------------------------------------------------
D|-----------0-----------0--------------------0--------------0-----
A|--------0-----0-----0-----0---------0-----------0-------0-----0--
E|--0--------------0-----------0----------------------0------------

Stave 4:

E|--12h15--12--10--9---10--12--12------9--9--7--7--5--
B|---------14--12--10--12--14--14--10-----------------
G|-------------------------------------9--9-----7--6--
D|-----------------------------14--11-----------------
A|---------0------------------------------7-----7--0--
E|----------------------------------------------------

Stave 5:

E|------------------------------------------------------------------------------
B|--2--3--2--------3--5--3--------5--7--5--------7--8--7--------8--10--8--------
G|-----------2--------------4--------------6--------------7---------------9-----
D|------------------------------------------------------------------------------
A|--------------0--------------0--------------0--------------0---------------0--
E|------------------------------------------------------------------------------

Stave 6:

E|-----------------------------------------------------------5--7--5-----------------10--12--
B|--10--12--10---------12--14--12---------14--15--14---------------7-----7-------------------
G|--------------11-----------------12-----------------14-----------------7-------------------
D|-----------------------------------------------------------------------0-------------------
A|------------------0------------------0------------------0-----------0-----0-----0----------
E|-----------------------------------------------------------------0-----------0-------------

Stave 7:

E|--10------
B|--12--12--
G|------12--
D|--0-------
A|------0---
E|----------

http://www.guitartabcreator.com
Guitar Tab Creator is intended to store guitar tab created through the tool. It currently does not support in-line text editing. Any text you place in here will be lost. If you need to comment on your tab, please use the "Tab Notes" section located below.