Sound will begin in 5 seconds

Francisco Tárrega - Capricho Arabe

Chords
01234567891011121314151617181920212223
E
B
G
D
A
E
B
0 1 2 3 4 5 6 7 8 9 10 11 12 13 14 15 16 17 18 19 20 21 22 23
(/) Slide Up  (\) Slide Down  (h) Hammer On  (p) Pull Off  (b) Bend (r) Release (v) Vibrato

Stave 1:

E|------15p12--10p9--12p10--6p5--8p6-------0-----0-----
B|------------------------------------8p5-----3-----2--
G|--------------------------------------------3-----2--
D|--12----------------------------------------5-----2--
A|--12----------------------------------------------0--
E|--12-------------------------------------------------

Stave 2:

E|------------------------------------------------------------------------------------------
B|------------------------------------------------------------------------------------------
G|-------------------9--7--6--7--9--7--6--3--2--5--3--2-------------------------------------
D|--------2--5/8--7--------------------------------------5--3--2--0-------------------------
A|--0--4-------------------------------------------------------------4--1--0----------------
E|----------------------------------------------------------------------------5--3--2/8--7--

Stave 3:

E|--------------------------------------------------
B|-----3-----3-----2-----2-----3-----3-----2--------
G|-----2-----2-----2-----2-----2-----2-----2-----2--
D|-----3--3-----2--------5-----3--3-----2-----------
A|--------------------0-----------------------0-----
E|--0-----------------------0-----------------------

Stave 4:

E|--5-----5-----------5--6p8--6--5--6--8--5-----5-----------5--6p8--6--5--6--8--8p5-----5-----
B|-----6-----6-----8-------------------------6-----6-----8---------------------------6-----6--
G|--------------------------------------------------------------------------------------------
D|-----7-----7-------------------------------7-----7---------------------------------7-----7--
A|--------8-----7-------------0-----------------8-----7-------------0-------------------8-----
E|--0-------------------------------------0---------------------------------------0-----------

Stave 5:

E|------------7--9--10--12--13--13--12--10---------9--12--9----------------
B|-----9--10--------------------10----------10---------------11--8---------
G|------------------------------10----------10----------------------9------
D|---------------------------------------------------------------------11--
A|--7---------0-------------------------0-------7------------0-------------
E|--------------------------0----------------------------------------------

Stave 6:

E|---------------------------------------------------------------5--8/11--10--
B|--10-----10--------8--6--5--6--8--5--3/6-----7--------------7---------------
G|------7------7----------------------------7-----5--------5------------------
D|------7------7----------------------------7-----7-----7---------------------
A|---------8------7--------0-------------------------5------------------------
E|--0----------------------------------0--------------------------------------

Stave 7:

E|--8h10p8--6--5--3--6p5--10p9--12p10--13p12--15p12--10p9--12p10--6p5--8p6--------------------
B|----------8-----5---------------------------------------------------------8--5--3-----2-----
G|--0----------3---------------------------------------------------------------------3-----2--
D|--------------------------------------------------------------------------------------------
A|-------------------0------------------------0-----------------------------------------0-----
E|--------------------------------------------------------------------------------------------

Stave 8:

E|--------------------------------------------------
B|-----3-----3-----4-----2-----3-----3-----4-----2--
G|-----------------0-----2-----------------0-----2--
D|-----3-----3-----------2-----3-----3-----------2--
A|--------1-----------0-----------1-----------0-----
E|--0-----------1-----------0-----------1-----------

Stave 9:

E|-----5-----5----------------------------------------------------5--6h8p6--5-----5/8--------------------
B|-----6-----6--------5--6--5h6p5-----5--6--3h5p3--------------8---------------8----------6-----6-----5--
G|--5-----5--------7---------------7---------------5-----5-----------5-----------------5-----5-----7-----
D|--------------5----------------------------------7-----7--5--------------------------7-----7-----------
A|--------3-----------------3-------------------------3---------------------------0-------------5--------
E|--3---------------------------------------3------------------------------------------------------------

Stave 10:

E|---------------3h5p3--------------------0-------------
B|--6h8p6--5---------------1-----------3-----3p1--------
G|------------7---------5-----3-----3-------------3-----
D|----------------------------2-------------------------
A|---------------3---------------3-------------------3--
E|--5---------------------------------------------------

Stave 11:

E|-----5-----5-----
B|-----6-----6-----
G|--5-----5--------
D|-----------------
A|--------3--------
E|--3--------------

Stave 12:

E|-----------------------6--6h8p6--5-----------
B|--------------5--6--8---------------5-----5--
G|--------5--7--0---------------------6-----6--
D|-----6---------------------------------7-----
A|--------------------------0------------------
E|--5------------------------------------------

Stave 13:

E|-----10p6-----0-----------------------0------9--12-----6--3--0--------------
B|-----------8-----3-----------------2-----10---------------------3-----------
G|--------------------3--0--------2----------------------------------3--0-----
D|-----------------------------2-------------------------------------------2--
A|--0-----------------------0-------------------------0-----------------------
E|----------------------------------------------------------------------------

Stave 14:

E|--------------0--5--5--5--5--------------------------------------------------------------------------
B|-----------2-----------------------------------------------------------0--1--2--3--4--5--6--7--8--9--
G|--------2--------------------------------------------------0--1--2--3--------------------------------
D|-----2--------------------------------------0--1--2--3--4--------------------------------------------
A|--0--------------------------0--1--2--3--4-----------------------------------------------------------
E|-----------------------------------------------------------------------------------------------------

Stave 15:

E|----------------7--9--10--9h10p9------7--9--7h9p7---------------------------------------------------
B|--10-----10-----------------------10---------------10-----10--------7--8h10p8--7-----7/10-----------
G|------7--------------------------------------------7------7------9----------------9-----------7-----
D|------7-------------------7----------------------------------------------------------------7-----7--
A|---------9---7-----------------------------------------9------7--------0----------------------9-----
E|--0-----------------------------------------0----------------------------------------0--------------

Stave 16:

E|------------------------------4/5--9p7-----0--5--------------
B|-----3h5p3--2-----5---------------------8--------3-----3-----
G|---------------4--------2------------------------2-----2-----
D|---------------------2-----2------------------------4-----2--
A|-----2------------0-----4------------------------------------
E|--2-------------------------------------------0--------------

Stave 17:

E|-------------------5--8--9-----
B|----------------6--------------
G|-------------8--------------9--
D|-------7h10--------------------
A|--6h9--------------------7-----
E|-------------------------------

Stave 18:

E|--
B|--
G|--
D|--
A|--
E|--

Stave 19:

E|--14p12--10---------0-------------7--7h5--5\3--3--
B|-------------12--9--------------------------------
G|-----------------------7--7\6--6------------------
D|--------------------------------------------------
A|--------------------------------------------------
E|--------------------------------------------------

Stave 20:

E|-------------------7--9--10--9h10p9------7--9--7h9p7--------------------------------------------------
B|--10-----10--------------------------10---------------10--------------7--8h10p8--7-----7/10-----------
G|------7------7----------------------------------------7------7-----9----------------9-----------7-----
D|------7------7---------------7-------------------------------7-------------------------------7-----7--
A|---------9------7-----------------------------------------9-----7--------0----------------------9-----
E|--0--------------------------------------------0---------------------------------------0--------------

Stave 21:

E|---------------------------------------4/5--9p7-----0-------------------7--9--10--9h10p9------7--9--7h9p
B|--------2--3h5p3--2-----5------------------------8-----10-----10--------------------------10------------
G|-----4---------------4--------2----------------------------7------7-------------------------------------
D|-----------2---------------2-----2-------------------------7------7---------------7---------------------
A|------------------------0-----4-----0-------------------------9------7----------------------------------
E|--2----------------------------------------------------0--------------------------------------------0---

Stave 22:

E|--7-----------------------2--5/12--10--10h12p10--0-----0----------------------------------------
B|-----10----------------3-------------------------0-----0--------2--3--10--8--8--10--8--7-----5--
G|-----7------7-------2------------------0---------------------4-------------------------------6--
D|------------7--0h4----------------------------------------------------11--9--9---------7-----5--
A|---------9-------------------------------------------------------------------0------------0-----
E|----------------------------------------------------5-----2-------------------------------------

http://www.guitartabcreator.com
Guitar Tab Creator is intended to store guitar tab created through the tool. It currently does not support in-line text editing. Any text you place in here will be lost. If you need to comment on your tab, please use the "Tab Notes" section located below.