Sound will begin in 5 seconds

Tougher Than The Rest

01234567891011121314151617181920212223
E
B
G
D
A
E
B
0 1 2 3 4 5 6 7 8 9 10 11 12 13 14 15 16 17 18 19 20 21 22 23
Song Science #1: How Pros Use 6 Chords to Write Hit Songs
(/) Slide Up  (\) Slide Down  (h) Hammer On  (p) Pull Off  (b) Bend (r) Release (v) Vibrato

Stave 1:

E|-----------------|-----|-----------------|---------------7--|--10--7---------------------|--
B|-----------------|-----|-----------------|--------7--10-----|---------10--7-----------7--|--
G|-----------------|-----|-----------------|-----9------------|----------------9--7--9-----|--
D|-----------------|-----|--------------4--|------------------|----------------------------|--
A|--------------5--|--5--|--5--5--5--7-----|--7---------------|----------------------------|--
E|--5--5--5--7-----|-----|-----------------|------------------|----------------------------|--

Stave 2:

E|---------------|------------7--10--|--12--10-----------------
B|------7--------|-----7--10---------|----------12--10--11--9--
G|--9v-----9--7--|--7----------------|-------------------------
D|---------------|-------------------|-------------------------
A|---------------|-------------------|-------------------------
E|---------------|-------------------|-------------------------

Stave 3:

E|--------------------|-------------|--------------------|---------------|------------------|--
B|--7--7--7--5--------|------5------|--7--7--7--5--------|---------------|------------------|--
G|--------------7--4--|--7v-----7v--|--------------7--4--|---------------|------------------|--
D|--------------------|-------------|--------------------|--7v--4-----4--|--7v--7--4-----4--|--
A|--------------------|-------------|--------------------|---------7-----|------------7-----|--
E|--------------------|-------------|--------------------|---------------|------------------|--

Stave 4:

E|--------------
B|--------------
G|-----4--------
D|--5-----7--5--
A|--------------
E|--------------

http://www.guitartabcreator.com
Guitar Tab Creator is intended to store guitar tab created through the tool. It currently does not support in-line text editing. Any text you place in here will be lost. If you need to comment on your tab, please use the "Tab Notes" section located below.