Sound will begin in 5 seconds

Lodi - E dur

01234567891011121314151617181920212223
E
B
G
D
A
E
B
0 1 2 3 4 5 6 7 8 9 10 11 12 13 14 15 16 17 18 19 20 21 22 23
Song Science #1: How Pros Use 6 Chords to Write Hit Songs
(/) Slide Up  (\) Slide Down  (h) Hammer On  (p) Pull Off  (b) Bend (r) Release (v) Vibrato

Stave 1:

E|--------------|------------|---------------|------|--7v-----------|-------------|------------|------
B|--9--9--7-----|------------|------7-----7--|--9v--|------9--7-----|-------------|------------|------
G|-----------9--|--6v-----6--|--9v-----9-----|------|------------9--|--9v--6v-----|------------|------
D|--------------|------9-----|---------------|------|---------------|----------9--|--6v--------|------
A|--------------|------------|---------------|------|---------------|-------------|------9--6--|--6v--
E|--------------|------------|---------------|------|---------------|-------------|------------|------

Stave 2:

E|--------------|---------|---------------|------
B|--------------|---------|---------------|------
G|--------------|---------|---------------|------
D|-----------4--|--6v--4--|---------------|------
A|--7--7--7-----|---------|--7v--4-----4--|--7v--
E|--------------|---------|---------7-----|------

Stave 3:

E|--------------|---------------|------------|-----4v--|--12--9---------|---------
B|--------------|---------------|------5-----|--7------|---------12--9--|---------
G|--------------|-----4v-----4--|--6v-----6--|---------|----------------|--11--9--
D|-----------4--|--6------6-----|------------|---------|----------------|---------
A|--7--7--7-----|---------------|------------|---------|----------------|---------
E|--------------|---------------|------------|---------|----------------|---------

Stave 4:

E|-----------------|------9------
B|-------9------9--|--12-----12--
G|--11v-----11-----|-------------
D|-----------------|-------------
A|-----------------|-------------
E|-----------------|-------------

Stave 5:

E|--------------------|--------|--------------|-----|--------------|--------|--------------|-----
B|-----5--------------|--------|--------------|-----|--------------|--------|--------------|-----
G|--------6--4--------|--------|--------------|-----|--------------|--------|--------------|-----
D|--------------6--4--|--6--4--|-----------4--|--6--|-----------4--|--6--4--|--------------|-----
A|--------------------|--------|--7--7--7-----|-----|--7--7--7-----|--------|--7--4--------|-----
E|--------------------|--------|--------------|-----|--------------|--------|--------7--4--|--0--

http://www.guitartabcreator.com
Guitar Tab Creator is intended to store guitar tab created through the tool. It currently does not support in-line text editing. Any text you place in here will be lost. If you need to comment on your tab, please use the "Tab Notes" section located below.