Sound will begin in 5 seconds

El Muñeco

01234567891011121314151617181920212223
E
B
G
D
A
E
B
0 1 2 3 4 5 6 7 8 9 10 11 12 13 14 15 16 17 18 19 20 21 22 23
Song Science #1: How Pros Use 6 Chords to Write Hit Songs
(/) Slide Up  (\) Slide Down  (h) Hammer On  (p) Pull Off  (b) Bend (r) Release (v) Vibrato

Stave 1:

E|--17--17--17--17--17--21--19--17--19--19--16--16--16--16--16--19--17--16--17--17--
B|----------------------------------------------------------------------------------
G|----------------------------------------------------------------------------------
D|----------------------------------------------------------------------------------
A|----------------------------------------------------------------------------------
E|----------------------------------------------------------------------------------

Stave 2:

E|--21--19--17--22--21--19--19--17--16--21--19--17--
B|--------------------------------------------------
G|--------------------------------------------------
D|--------------------------------------------------
A|--------------------------------------------------
E|--------------------------------------------------

Stave 3:

E|------------------------------------------------------------
B|--14h15--14h15p14--15--14--12--12h14--12h14p12--14--12--10--
G|------------------------------------------------------------
D|------------------------------------------------------------
A|------------------------------------------------------------
E|------------------------------------------------------------

Stave 4:

E|-----------------------------------------------------------
B|-----------------------------------------------------------
G|--2--2--2--2--2--6--4--2--4--4--1--1--1--1--1--4--2--1--2--
D|-----------------------------------------------------------
A|-----------------------------------------------------------
E|-----------------------------------------------------------

Stave 5:

E|--------------------------------------------------------------------------------------
B|--7--7--5--7--5--7-----7--7--5--5-----5-----5--5--3--5--3--5-----5--5--3--3-----3-----
G|--------------------6--------------6-----4--------------------4--------------4-----2--
D|--------------------------------------------------------------------------------------
A|--------------------------------------------------------------------------------------
E|--------------------------------------------------------------------------------------

Stave 6:

E|----------------------------------------------
B|--------------------------------5h7--5h7--5v--
G|--2--2--2--2--2--6--4--2--4--4----------------
D|----------------------------------------------
A|----------------------------------------------
E|----------------------------------------------

http://www.guitartabcreator.com
Guitar Tab Creator is intended to store guitar tab created through the tool. It currently does not support in-line text editing. Any text you place in here will be lost. If you need to comment on your tab, please use the "Tab Notes" section located below.