Sound will begin in 5 seconds

Land of 1000 Dances (Electric Bass)

01234567891011121314151617181920212223
E
B
G
D
A
E
B
0 1 2 3 4 5 6 7 8 9 10 11 12 13 14 15 16 17 18 19 20 21 22 23
Song Science #1: How Pros Use 6 Chords to Write Hit Songs
(/) Slide Up  (\) Slide Down  (h) Hammer On  (p) Pull Off  (b) Bend (r) Release (v) Vibrato

(W|WW) Whole (H|HH) Half (Q|QQ) Quarter (E|EE) 8th (S|SS) 16th (T|TT) 32nd (X|XX) 64th

Stave 1:
t: W null W null W null Q W E E E E E E E E
E|-----|----|-----|----|-----|----|--------|--------------------------
B|-----|----|-----|----|-----|----|--------|--------------------------
G|-----|----|-----|----|-----|----|--3-----|--3--3--0--0--1--2--2--2--
D|-----|----|-----|----|--1--|----|--------|--------------------------
A|--1--|----|--4--|----|-----|----|-----1--|--------------------------
E|-----|----|-----|----|-----|----|--------|--------------------------

Stave 2:
t: H E E E H E E E Q E E Q E E Q null E E E W W E E E E E E E E
E|--------------|--------------|--------------------|-------------------|-----|--------------------------
B|--------------|--------------|--------------------|-------------------|-----|--------------------------
G|--3--1--3--1--|--3--1--3--1--|--3--1-----1--------|-------1--3--1--3--|--3--|--3--3--0--0--1--2--2--2--
D|--------------|--------------|--------3-----3--1--|--3----------------|-----|--------------------------
A|--------------|--------------|--------------------|-------------------|-----|--------------------------
E|--------------|--------------|--------------------|-------------------|-----|--------------------------

Stave 3:
t: HH E EE E HH E EE E QQ E EE Q EE E QQ null E EE E WW WW E E E E E E E E
E|----------------|----------------|-----------------------|----------------------|------|--------------------------
B|----------------|----------------|-----------------------|----------------------|------|--------------------------
G|--10--8--10--8--|--10--8--10--8--|--10--8------8---------|--------8--10--8--10--|--10--|--3--3--0--0--1--2--2--2--
D|----------------|----------------|---------10-----10--8--|--10------------------|------|--------------------------
A|----------------|----------------|-----------------------|----------------------|------|--------------------------
E|----------------|----------------|-----------------------|----------------------|------|--------------------------

Stave 4:
t: Q E E E E E E
E|-----------------------
B|-----------------------
G|--3--3-----1--3--2-----
D|--------3-----------3--
A|-----------------------
E|-----------------------

http://www.guitartabcreator.com
Guitar Tab Creator is intended to store guitar tab created through the tool. It currently does not support in-line text editing. Any text you place in here will be lost. If you need to comment on your tab, please use the "Tab Notes" section located below.