Sound will begin in 5 seconds

Ain't no sunshine

01234567891011121314151617181920212223
E
B
G
D
A
E
B
0 1 2 3 4 5 6 7 8 9 10 11 12 13 14 15 16 17 18 19 20 21 22 23
Song Science #1: How Pros Use 6 Chords to Write Hit Songs
(/) Slide Up  (\) Slide Down  (h) Hammer On  (p) Pull Off  (b) Bend (r) Release (v) Vibrato

Stave 1:

E|----------------|------------------|-----------------------------|--|----------------|--
B|----------------|------------------|-----------------------------|--|-------------5--|--
G|-------------5--|--5\4-------------|--------0--------3-----------|--|-------5--7-----|--
D|-------5--7-----|-------5/7-----7--|-----0--------4--------5--5--|--|--5/7-----------|--
A|--5/7-----------|------------0-----|--------------------0--------|--|----------------|--
E|----------------|------------------|--0--------3-----------------|--|----------------|--

Stave 2:

E|-------------------------|-----------------------------|----------------|--------------------------|--
B|-------3-----5-----3-----|-----3-----1-----3--------1--|----------------|--------1-----3-----1-----|--
G|----0-----0-----0--------|--0-----0-----0--------0-----|--2--0--0h2-----|-----2-----2-----2--------|--
D|-------------------------|-----------------------------|-------------0--|--0--------------------0--|--
A|-------------------------|-----------------------------|----------------|--------------------------|--
E|----------------------0--|--------------------0--------|----------------|--------------------------|--

Stave 3:

E|---------------------|-----------------------------|--|----------------------------------|--|--
B|---------------------|-----------------------------|--|----------------------------------|--|--
G|----2--0--2--1/2-----|--------0--------4--------5--|--|----------------------------------|--|--
D|---------------------|-----0--------3--------5-----|--|--5--7--5--7--5--7--5--7--5--7\2--|--|--
A|------------------0--|--------------------0--------|--|----------------------------------|--|--
E|---------------------|--0--------3-----------------|--|----------------------------------|--|--

Stave 4:

E|-------------------|----------------|-------------------|----------------|----------------|--|--
B|-------------------|----------8--8--|-------------------|----------------|----------------|--|--
G|-------------5-----|--7/9--9--------|--9\7p5--7p5--7p5--|--7/9--9--7--5--|----------------|--|--
D|----7--7--7--------|----------------|-------------------|----------------|--7--5/7-----7--|--|--
A|----------------0--|----------------|-------------------|----------------|----------0-----|--|--
E|-------------------|----------------|-------------------|----------------|----------------|--|--

Stave 5:

E|----
B|----
G|----
D|----
A|----
E|----

Stave 6:

E|--
B|--
G|--
D|--
A|--
E|--

http://www.guitartabcreator.com
Guitar Tab Creator is intended to store guitar tab created through the tool. It currently does not support in-line text editing. Any text you place in here will be lost. If you need to comment on your tab, please use the "Tab Notes" section located below.