Sound will begin in 5 seconds

Константин Никольский - Музыкант (акомпанимент)

Chords
01234567891011121314151617181920212223
E
B
G
D
A
E
B
0 1 2 3 4 5 6 7 8 9 10 11 12 13 14 15 16 17 18 19 20 21 22 23
Song Science #1: How Pros Use 6 Chords to Write Hit Songs
(/) Slide Up  (\) Slide Down  (h) Hammer On  (p) Pull Off  (b) Bend (r) Release (v) Vibrato

Stave 1:

E|--------5--5--7-----10--7--------5--5--|-----1--1--3--3-----5--7--8---|-----5--5--7--------10--7-----5--
B|--------5--5--8-----12--8--------5--5--|-----3--3--5--5-----6--8--10--|-----5--5--8--------12--8-----5--
G|---------------------------------------|------------------------------|---------------------------------
D|---------------------------------------|--0--------------0------------|---------------------------------
A|--0--------------0---------------------|------------------------------|--0--------------0---------------
E|---------------------------------------|------------------------------|---------------------------------

Stave 2:

E|--3--|-----1--1--3--3-----5--7--8---|--0--------0------------------3--0--|--4--------5-----8--|--
B|--5--|-----3--3--5--5-----6--8--10--|--------------3---------1-----------|--------5-----5--5--|--
G|-----|------------------------------|--------2--------4\2p0-----0--------|-----4--------------|--
D|-----|--0--------------0------------|-----2------------------------------|--------------------|--
A|-----|------------------------------|--0---------------------3-----------|-----------7--------|--
E|-----|------------------------------|--------------3---------------------|--0-----------------|--

Stave 3:

E|--7--8/7-----7-----5--|--10--8---12--10--8--5--0--------|-----------0--------5--7--3--0--------|--|--
B|--8-------8--8-----6--|--10--10--10---------------3-----|--------0-----0-----------------3-----|--|--
G|--9----------7-----5--|--9---9---9-------------------5--|-----5-----------5-----------------5--|--|--
D|----------------------|----------0----------------------|--------------------------------------|--|--
A|--7----------8--8-----|---------------------------------|--0-----------------------------------|--|--
E|----------------------|--0------------------------------|--------------------------------------|--|--

http://www.guitartabcreator.com
Guitar Tab Creator is intended to store guitar tab created through the tool. It currently does not support in-line text editing. Any text you place in here will be lost. If you need to comment on your tab, please use the "Tab Notes" section located below.