Sound will begin in 5 seconds

去大理

Chords
01234567891011121314151617181920212223
E
B
G
D
A
E
B
0 1 2 3 4 5 6 7 8 9 10 11 12 13 14 15 16 17 18 19 20 21 22 23
Song Science #1: How Pros Use 6 Chords to Write Hit Songs
(/) Slide Up  (\) Slide Down  (h) Hammer On  (p) Pull Off  (b) Bend (r) Release (v) Vibrato

Stave 1:

E|-------------------|--------------------|-------------------------------------------------------
B|--5--7--8----------|--------------------|--5--7--8--8/10-----8h10/12-----10h12/13---------------
G|--x-----------4/7--|--------------------|--x----------------------------------------------------
D|--x----------------|--7/9---------------|--x----------------------------------------------------
A|--x----------------|--x---------5/7\5-----|--x------------------------------------------5/7\5-----
E|-------------------|--x-------------------|-------------------------------------------------------

Stave 2:

E|----------------------------------------------------------|--12--14--15--------------------
B|---------------------8-----8/10--8/10-----12-----8/10-----|--x-----------12/15-----b10--8--
G|--6/7--6/7-----7-----7--------------------12-----9--------|--x-----------------------------
D|------------7---------------------------------------------|--x-----------------------------
A|----------------------------------------------------------|--------------------------------
E|----------------------------------------------------------|--------------------------------

http://www.guitartabcreator.com
Guitar Tab Creator is intended to store guitar tab created through the tool. It currently does not support in-line text editing. Any text you place in here will be lost. If you need to comment on your tab, please use the "Tab Notes" section located below.