Sound will begin in 5 seconds

一样的夏天

Chords
01234567891011121314151617181920212223
E
B
G
D
A
E
B
0 1 2 3 4 5 6 7 8 9 10 11 12 13 14 15 16 17 18 19 20 21 22 23
Song Science #1: How Pros Use 6 Chords to Write Hit Songs
(/) Slide Up  (\) Slide Down  (h) Hammer On  (p) Pull Off  (b) Bend (r) Release (v) Vibrato

Stave 1:

E|-----------------------------|--------------------|----------------------|---------10--12/14--10/12--
B|-----8b10r8--7---------------|--------------------|-----8b10r8--7--8/10--|--10/12--------------------
G|----------------8/9\---6--7--|--r8b9r8--7---------|----------------------|---------------------------
D|--7--------------------------|-------------7h8p7--|--7-------------------|---------------------------
A|-----------------------------|--------------------|----------------------|---------------------------
E|-----------------------------|--------------------|----------------------|---------------------------

Stave 2:

E|--10--10--|----------------------------|--|---------------------------|--|--10-12--10----------
B|----------|----------------------------|--|---------------------------|--|--10/12--10-----/10--
G|----------|--7--9--10r9b10--9--7-------|--|-------------7/9--7--9/11--|--|-----------------9---
D|----------|-----------------------8\7--|--|--7/9--7-------------------|--|---------------------
A|----------|----------------------------|--|---------------------------|--|---------------------
E|----------|----------------------------|--|---------------------------|--|---------------------

Stave 3:

E|--------------10------------|----------------------------------------------------------------------------------------
B|--------------10--10/12\10--|--------------------------10--10/12--15--17b19r17--15--10--10b11r10b11--10--8--7--8/10--
G|--7--9b11--7----------------|--------7--7--9--7--9/11----------------------------------------------------------------
D|----------------------------|--7--9----------------------------------------------------------------------------------
A|----------------------------|----------------------------------------------------------------------------------------
E|----------------------------|----------------------------------------------------------------------------------------

Stave 4:

E|-----------------------------------|------------------------|-----------------------------------------
B|-----------------------------------|------------------------|---------15--17b19r17b19r17--15----------
G|--------7--7--7/9--7--7/9-7--------|----------------7/9--5--|--14/16--------------------------15--14--
D|--7--9----------------5-7\5--7/9\7\|-------------5----------|-----------------------------------------
A|-----------------------------------|--2--5--5/7-------------|-----------------------------------------
E|-----------------------------------|------------------------|-----------------------------------------

Stave 5:

E|--------------|-----------|-----------------|-------------|--|------------------------|-----------
B|--------------|-----------|-----------------|--10/12--10--|--|------------------------|--5/7--10--
G|--------7--7--|--9/11--7--|--6b7r6----------|-------------|--|--9/11\9/11\9-----6--7--|-----------
D|--7--9--------|-----------|---------7--7/9--|-------------|--|------------------------|-----------
A|--------------|-----------|-----------------|-------------|--|------------------------|-----------
E|--------------|-----------|-----------------|-------------|--|------------------------|-----------

Stave 6:

E|------------------10-12--10--|---------------------------|-----------------------------------------|--------------
B|------------------10/12--10--|-----8b10r8--7-------------|------------10/12--15--17b19r17--15--11--|--10--11--10--
G|--9/11\9/11\9----------------|----------------7/9--6--7--|--9/11--14-------------------------------|--------------
D|-----------------------------|--7------------------------|-----------------------------------------|--------------
A|-----------------------------|---------------------------|-----------------------------------------|--------------
E|-----------------------------|---------------------------|-----------------------------------------|--------------

Stave 7:

E|-------------------------------------------|--------------------------------------------|--|--
B|-----8b10r8--7--8/10--10/12--15--17b19r17--|--10/12\10----------------------------------|--|--
G|-------------------------------------------|------------9/11\9--7--9--9b10r9b10r9--9\0--|--|--
D|--7----------------------------------------|--------------------------------------------|--|--
A|-------------------------------------------|--------------------------------------------|--|--
E|-------------------------------------------|--------------------------------------------|--|--

Stave 8:

E|---------------------|----------------------------10-----12--10------------------------
B|---------------------|--9b11r9b11r9---------------10/12----------10/12-----10--11--10--
G|--9b11r9b11r9--6--7--|---------------9b11r9b11r9---------------------------------------
D|---------------------|-----------------------------------------------------------------
A|---------------------|-----------------------------------------------------------------
E|---------------------|-----------------------------------------------------------------

Stave 9:

E|-----------------|---------------------------|-------------------------------------------------------
B|-----------------|---------------------------|--------------------------------------------10/12--15--
G|--11--12--12b14--|--11--9--7--7/9--7---------|--------7-----7-----11--9--9--7--7/9--7/11-------------
D|-----------------|--------------------7h9p7--|--7--9-----9-----9-------------------------------------
A|-----------------|---------------------------|-------------------------------------------------------
E|-----------------|---------------------------|-------------------------------------------------------

Stave 10:

E|-------------14--15b17--15--14--15--14----------------------------------------------|--10-----------------------
B|---------15-----------------------------15------15--17--17b18r17b18r17--15----------|--10h12--10--------10--12--
G|--14/16-------------------------------------14------------------------------15--14--|-------------9/11----------
D|------------------------------------------------------------------------------------|---------------------------
A|------------------------------------------------------------------------------------|---------------------------
E|------------------------------------------------------------------------------------|---------------------------

Stave 11:

E|--10-----------------------------------------------------------
B|--10h12--10----------------------------------------------------
G|-------------7/9--7-----9--7--9--9b11r9--7--9--9b10r9b10r9--7--
D|---------------------------------------------------------------
A|---------------------------------------------------------------
E|---------------------------------------------------------------

http://www.guitartabcreator.com
Guitar Tab Creator is intended to store guitar tab created through the tool. It currently does not support in-line text editing. Any text you place in here will be lost. If you need to comment on your tab, please use the "Tab Notes" section located below.