Sound will begin in 5 seconds

song #3 creepy song

01234567891011121314151617181920212223
E
B
G
D
A
E
B
0 1 2 3 4 5 6 7 8 9 10 11 12 13 14 15 16 17 18 19 20 21 22 23
Song Science #1: How Pros Use 6 Chords to Write Hit Songs
(/) Slide Up  (\) Slide Down  (h) Hammer On  (p) Pull Off  (b) Bend (r) Release (v) Vibrato

Stave 1:

E|---------------------------------------------------------
B|---------------------------------------------------------
G|---------------------------------------------------------
D|--------------------------------2p3p2-----2-----2-----2--
A|---------------------------------------3-----3-----3-----
E|--0--0--0--0--0--0--0--0--0--0---------------------------

Stave 2:

E|---------------------------------------------------------
B|---------------------------------------------------------
G|---------------------------------------------------------
D|--------------------------------5p6p5-----5-----5-----5--
A|---------------------------------------6-----6-----6-----
E|--0--0--0--0--0--0--0--0--0--0---------------------------

Stave 3:

E|------------------------------------------------------------
B|------------------------------------------------------------
G|------------------------------------------------------------
D|------------------------------------------------------------
A|--------------------------------5/8--8--8--8--8/7--7--7--7--
E|--5--5--5--5--5--5--5--5--5--5------------------------------

Stave 4:

E|------------------------------------------------------------------
B|------------------------------------------------------------------
G|------------------------------------------------------------------
D|------------------------------------------------------------------
A|----------------------------------8/9--9--9--9--------------------
E|--6/8--8--8--8--8--8--8--8--8--8----------------------------------

Stave 5:

E|--------------------------------------------------------------
B|--------------------------------------------------------------
G|--------------------------------------------------------------
D|-----------------5--5--3--2-----2-----------------------------
A|--2--2--3--2--3--------------3-----3--2--3--------------------
E|--------------------------------------------2--2--2--3--3--3--

Stave 6:

E|-----------------------------------------------------------
B|-----------------------------------------------------------
G|-----------------------------------------------------------
D|-----------------8--6--5-----5-----------------------------
A|--5--5--6--5--6-----------6-----6--5--6--------------------
E|-----------------------------------------5--5--5--6--6--6--

Stave 7:

E|---------------------------------------------------------------------------------------------------
B|---------------------------------------------------------------------------------------------------
G|---------------------------------------------------------------------------------------------------
D|---------------------------------------------------------------------------------------------------
A|--------------------------5/8--8--8--7--7--7--------------------------8/10--10--10--10/12--12--12--
E|--0--0--0--0--0--0--0--0----------------------6--6--6--6--6--6--6--6-------------------------------

Stave 8:

E|-----------------------------------------------------------------------------
B|-----------------------------------------------------------------------------
G|-----------------------------------------------------------------------------
D|-----------------------------------------------------------------------------
A|-----------------------------------------------------------7--8--7-----7-----
E|--0--0--0--0--0--3--0--0--1--3--1--4--0--0--0--0--3--0--0-----------8-----8--

Stave 9:

E|----------------------------------------------------
B|----------------------------------------------------
G|----------------------------------------------------
D|---------------------------7------------------------
A|--5p7p5-----5--4-----4--------5--4--5--4p5p4--------
E|---------7--------5-----5---------------------5--5--

Stave 10:

E|-------------------------------------------------------
B|-------------------------------------------------------
G|-------------------------------------------------------
D|---------------------------5---------------------------
A|--3p5p3-----3--2-----2--------3--2--3--2p2--3p2--------
E|---------5--------3-----3------------------------3--3--

http://www.guitartabcreator.com
Guitar Tab Creator is intended to store guitar tab created through the tool. It currently does not support in-line text editing. Any text you place in here will be lost. If you need to comment on your tab, please use the "Tab Notes" section located below.