Sound will begin in 5 seconds

song #2

01234567891011121314151617181920212223
E
B
G
D
A
E
B
0 1 2 3 4 5 6 7 8 9 10 11 12 13 14 15 16 17 18 19 20 21 22 23
Song Science #1: How Pros Use 6 Chords to Write Hit Songs
(/) Slide Up  (\) Slide Down  (h) Hammer On  (p) Pull Off  (b) Bend (r) Release (v) Vibrato

Stave 1:

E|----------------------------------------------
B|----------------------------------------------
G|----------------------------------------------
D|----------------------------------------------
A|--------------12------------------------------
E|--9/10--0--0------0--9--10--9--0--7--0--8--7--

Stave 2:

E|------------------------------------------
B|------------------------------------------
G|------------------------------------------
D|------------------------------------------
A|--------------12--------------------------
E|--9/10--0--0------0--9--10--9--0--7--0--8b

Stave 3:

E|----------------------------------------------------------------------------------------
B|----------------------------------------------------------------------------------------
G|----------------------------------------------------------------------------------------
D|----------------------------------------------------------------------------------------
A|--------------12------------------------------------------------------------------------
E|--9/10--0--0------0--9--10--9--0--7--0--8--7--0--5--7--0--7--8--0--5--7--0--3--5--0--1--

Stave 4:

E|--------------------------------------------------------------------------------------------
B|--------------------------------------------------------------------------------------------
G|--------------------------------------------------------------------------------------------
D|--------------------------------------------------------------------------------------------
A|-----------------------------------------------------4--3--1--------------------------------
E|--0--0--0--1--0--0--0--0--0--0--1--0--0--0--4--3--1-----------0--1--2--0--1--2--3--2--1--2--

Stave 5:

E|--------------------------------------------------
B|--------------------------------------------------
G|--------------------------------------------------
D|--------------------------------------------------
A|-----------6--5--3--------------------------------
E|--6--5--3-----------0--3--4--0--3--4--5--4--3--4--

Stave 6:

E|--------------------------------------------------------------------
B|--------------------------------------------------------------------
G|--------------------------------------------------------------------
D|--------------------------------------------------------------------
A|--------------------------------------------------------------------
E|--0--0--0--0--0--0--12b0--0--12b12b0--0--0--0--0--1--0--0--1--1--3--

Stave 7:

E|-------------------------------------------------------------
B|-------------------------------------------------------------
G|-------------------------------------------------------------
D|-------------------------------------------------------------
A|-------------------------------------------------------------
E|--7--5--3--2--7--5--0--0--0--0--7--5--3--2--7--5--0--0--0--0p

Stave 8:

E|--------------------------------------------------
B|--------------------------------------------------
G|--------------------------------------------------
D|--------7--------------------7--------------------
A|-----------3--5-----------------3--5--------------
E|--0--0-----------3--4--0--0-----------3--4--3--1--

http://www.guitartabcreator.com
Guitar Tab Creator is intended to store guitar tab created through the tool. It currently does not support in-line text editing. Any text you place in here will be lost. If you need to comment on your tab, please use the "Tab Notes" section located below.