różne

01234567891011121314151617181920212223
E
B
G
D
A
E
B
0 1 2 3 4 5 6 7 8 9 10 11 12 13 14 15 16 17 18 19 20 21 22 23
(/) Slide Up  (\) Slide Down  (h) Hammer On  (p) Pull Off  (b) Bend (r) Release (v) Vibrato

Stave 1:

D|-------------------------------------
A|-------------------------------------
F|-------------------------------------
C|--2------------9------------8--------
G|--2--9--10-----7-----10-----6-----9--
D|--0--7--8---0-----0--0---0-----0--7--

Stave 2:

D|-------------------
A|-------------------
F|--9--10--5--4--12--
C|-------------------
G|--7--8---3--2--10--
D|-------------------

Stave 3:

D|----------------------------------------
A|----------------------------------------
F|----------------------------------------
C|------------------------9--10--7--5--7--
G|--10--9--10--10--9--10--0--0---0--0--0--
D|--0---0--0---0---0--0-------------------

Stave 4:

D|--5--8---10--
A|--6--9---11--
F|--7--10--12--
C|--7--10--12--
G|--5--8---10--
D|--5--8---10--

Stave 5:

D|--5--------------------
A|-----6-----------------
F|--------7--5-----------
C|--------------5--5--7--
G|-----------------------
D|-----------------------

Stave 6:

D|--------------------------------------
A|--------------------------------------
F|-----------7--0-----7--0--------------
C|--0--7--0--------8--------7--------7--
G|-----------------------------8--7-----
D|--------------------------------------

Stave 7:

D|------------------------
A|------------------------
F|--5--7--9--10--5--5--7--
C|--0--0--0--0---3--5--7--
G|------------------------
D|------------------------

Stave 8:

D|------------------------------------
A|------------------------------------
F|------------------------------------
C|--2---------------------2--5--7-----
G|--2--7--9--10--5--3--2--0--0--0--7--
D|--0--0--0--0---0--0--0-----------0--

Stave 9:

D|--------------------5--7--0--19--17--12--
A|--0--3--5--0--3--5-----------------------
F|-----------------------------------------
C|-----------------------------------------
G|-----------------------------------------
D|-----------------------------------------

Stave 10:

D|--------------------------------------------------
A|--------------------------------------------------
F|--------------------------------------------------
C|-----9-----9-----7-----5-----9-----9-----5-----2--
G|--7-----7-----5-----7-----7-----7-----7-----5-----
D|--------------------------------------------------

							http://www.guitartabcreator.com
Chords

Instruments
{"strings":[[[".",".",".",".",".",".",".",".",".",".","."],[".",".",".",".",".",".",".",".",".",".","."],[".",".",".",".",".",".",".",".",".",".","."],[2,".",".",".",9,".",".",".",8,".","."],[2,9,10,".",7,".",10,".",6,".",9],[0,7,8,0,".",0,0,0,".",0,7]],[[".",".",".",".","."],[".",".",".",".","."],[9,10,5,4,12],[".",".",".",".","."],[7,8,3,2,10],[".",".",".",".","."]],[[".",".",".",".",".",".",".",".",".",".","."],[".",".",".",".",".",".",".",".",".",".","."],[".",".",".",".",".",".",".",".",".",".","."],[".",".",".",".",".",".",9,10,7,5,7],[10,9,10,10,9,10,0,0,0,0,0],[0,0,0,0,0,0,".",".",".",".","."]],[[5,8,10],[6,9,11],[7,10,12],[7,10,12],[5,8,10],[5,8,10]],[[5,".",".",".",".",".","."],[".",6,".",".",".",".","."],[".",".",7,5,".",".","."],[".",".",".",".",5,5,7],[".",".",".",".",".",".","."],[".",".",".",".",".",".","."]],[[".",".",".",".",".",".",".",".",".",".",".","."],[".",".",".",".",".",".",".",".",".",".",".","."],[".",".",".",7,0,".",7,0,".",".",".","."],[0,7,0,".",".",8,".",".",7,".",".",7],[".",".",".",".",".",".",".",".",".",8,7,"."],[".",".",".",".",".",".",".",".",".",".",".","."]],[[".",".",".",".",".",".","."],[".",".",".",".",".",".","."],[5,7,9,10,5,5,7],[0,0,0,0,3,5,7],[".",".",".",".",".",".","."],[".",".",".",".",".",".","."]],[[".",".",".",".",".",".",".",".",".",".","."],[".",".",".",".",".",".",".",".",".",".","."],[".",".",".",".",".",".",".",".",".",".","."],[2,".",".",".",".",".",".",2,5,7,"."],[2,7,9,10,5,3,2,0,0,0,7],[0,0,0,0,0,0,0,".",".",".",0]],[[".",".",".",".",".",".",5,7,0,19,17,12],[0,3,5,0,3,5,".",".",".",".",".","."],[".",".",".",".",".",".",".",".",".",".",".","."],[".",".",".",".",".",".",".",".",".",".",".","."],[".",".",".",".",".",".",".",".",".",".",".","."],[".",".",".",".",".",".",".",".",".",".",".","."]],[[".",".",".",".",".",".",".",".",".",".",".",".",".",".",".","."],[".",".",".",".",".",".",".",".",".",".",".",".",".",".",".","."],[".",".",".",".",".",".",".",".",".",".",".",".",".",".",".","."],[".",9,".",9,".",7,".",5,".",9,".",9,".",5,".",2],[7,".",7,".",5,".",7,".",7,".",7,".",7,".",5,"."],[".",".",".",".",".",".",".",".",".",".",".",".",".",".",".","."]]],"numberofstrings":6,"notes":["D","A","F","C","G","D","B"],"capo":0,"stringnotes":["D1","A1","F1","C1","G1","D1"],"comments":["Stave 1:","Stave 2:","Stave 3:","Stave 4:","Stave 5:","Stave 6:","Stave 7:","Stave 8:","Stave 9:","Stave 10:"],"timing":[["W","W","W","W","W","W","W","W","W","W","W"],["W","W","W","W","W"],["W","W","W","W","W","W","W","W","W","W","W"],["W","W","W"],["W","W","W","W","W","W","W"],["W","W","W","W","W","W","W","W","W","W","W","W"],["W","W","W","W","W","W","W"],["W","W","W","W","W","W","W","W","W","W","W"],["W","W","W","W","W","W","W","W","W","W","W","W"],["W","W","W","W","W","W","W","W","W","W","W","W","W","W","W","W"]],"timingvisible":false,"tabcounter":16,"stave":9,"totalstaves":10,"instrument":"6guitar","selectedtuning":"6_standard","version":"13"}

Member for

1 month 2 weeks
Submitted by fiszmak on Sun, 2021-01-24 12:47