Numer 1

Chords

01234567891011121314151617181920212223
E
B
G
D
A
E
B
0 1 2 3 4 5 6 7 8 9 10 11 12 13 14 15 16 17 18 19 20 21 22 23
(/) Slide Up  (\) Slide Down  (h) Hammer On  (p) Pull Off  (b) Bend (r) Release (v) Vibrato

Stave 1:

E|-----------------------------------------------------------------------------------------------------------
B|-----------------------------------------------------------------------------------------------------------
G|-----------------------------------------------------------------------------------------------------------
D|-----------------------------------------------3--5--------------------------------------------------------
A|-----------------7-----------------------------------5--------------------------------1-----------6--0--3--
D|--0--0--0--0--0-----0--0--0--0--6--0--0--0--0-----------0--0--0--0--0--0--1--0--0--0-----0--0--0-----------

Stave 2:

E|--------------------------------------------------------------------------------------------------------------------------------
B|--------------------------------------------------------------------------------------------------------------------------------
G|--------------------------------------------------------------------------------------------------------------------------------
D|--------------------------------------------------------------------------------------------------------------------------------
A|-----------------7--------------------------------------------------------------------1-----------------------------------------
D|--0--0--0--0--0-----0--0--0--0--6--0--0--0--0--3--0--5--0--0--0--0--0--0--1--0--0--0-----0--0--0--1--1--1--1--1--2--2--2--2--2--

Stave 3:

E|--------------------------------------------------------------------------------------------------------------------------------------------------------
B|--------------------------------------------------------------------------------------------------------------------------------------------------------
G|--------------------------------------------------------------------------------------------------------------------------------------------------------
D|--------------------------------------------------------------------------------------------------------------------------------------------------------
A|-----------------------------------------------------------------------------------------------------------------------------------------------------8--
D|--0--0--0--0--0--0--0--0--0--0--0--0--5--0--0--0--0--0--0--0--0--0--0--0--0--1--0--0--0--0--0--0--0--0--0--0--0--0--2--0--0--0--0--0--0--0--0--8--9-----

Stave 4:

E|--------------------------------------------------------------------------------
B|--------------------------------------------------------------------------------
G|--5--x-----------5--x--------------------5--x-----------5--x--------------------
D|--5--x-----------5--x--------------------5--x-----------5--x--------------------
A|--5--x--0--0--1--5--x--0--0--1--0--5--6--5--x--0--0--1--5--x--0--0--1--0--5--6--
D|--------0--0--1--------0--0--1--0--5--6--------0--0--1--------0--0--1--0--5--6--

Stave 5:

E|--------------------------------------------------------------------------------
B|--------------------------------------------------------------------------------
G|--5--x-----------5--x--------------------5--x-----------5--x--------------------
D|--5--x-----------5--x--------------------5--x-----------5--x--------------------
A|--5--x--0--0--6--5--x--0--0--6--0--1--3--5--x--0--0--1--5--x--0--0--1--0--5--6--
D|--------0--0--6--------0--0--6--0--1--3--------0--0--1--------0--0--1--0--5--6--

							http://www.guitartabcreator.com
Instruments
{"strings":[[[".",".",".",".",".",".",".",".",".",".",".",".",".",".",".",".",".",".",".",".",".",".",".",".",".",".",".",".",".",".",".",".",".",".","."],[".",".",".",".",".",".",".",".",".",".",".",".",".",".",".",".",".",".",".",".",".",".",".",".",".",".",".",".",".",".",".",".",".",".","."],[".",".",".",".",".",".",".",".",".",".",".",".",".",".",".",".",".",".",".",".",".",".",".",".",".",".",".",".",".",".",".",".",".",".","."],[".",".",".",".",".",".",".",".",".",".",".",".",".",".",".",3,5,".",".",".",".",".",".",".",".",".",".",".",".",".",".",".",".",".","."],[".",".",".",".",".",7,".",".",".",".",".",".",".",".",".",".",".",5,".",".",".",".",".",".",".",".",".",".",1,".",".",".",6,0,3],[0,0,0,0,0,".",0,0,0,0,6,0,0,0,0,".",".",".",0,0,0,0,0,0,1,0,0,0,".",0,0,0,".",".","."]],[[".",".",".",".",".",".",".",".",".",".",".",".",".",".",".",".",".",".",".",".",".",".",".",".",".",".",".",".",".",".",".",".",".",".",".",".",".",".",".",".",".","."],[".",".",".",".",".",".",".",".",".",".",".",".",".",".",".",".",".",".",".",".",".",".",".",".",".",".",".",".",".",".",".",".",".",".",".",".",".",".",".",".",".","."],[".",".",".",".",".",".",".",".",".",".",".",".",".",".",".",".",".",".",".",".",".",".",".",".",".",".",".",".",".",".",".",".",".",".",".",".",".",".",".",".",".","."],[".",".",".",".",".",".",".",".",".",".",".",".",".",".",".",".",".",".",".",".",".",".",".",".",".",".",".",".",".",".",".",".",".",".",".",".",".",".",".",".",".","."],[".",".",".",".",".",7,".",".",".",".",".",".",".",".",".",".",".",".",".",".",".",".",".",".",".",".",".",".",1,".",".",".",".",".",".",".",".",".",".",".",".","."],[0,0,0,0,0,".",0,0,0,0,6,0,0,0,0,3,0,5,0,0,0,0,0,0,1,0,0,0,".",0,0,0,1,1,1,1,1,2,2,2,2,2]],[[".",".",".",".",".",".",".",".",".",".",".",".",".",".",".",".",".",".",".",".",".",".",".",".",".",".",".",".",".",".",".",".",".",".",".",".",".",".",".",".",".",".",".",".",".",".",".",".",".","."],[".",".",".",".",".",".",".",".",".",".",".",".",".",".",".",".",".",".",".",".",".",".",".",".",".",".",".",".",".",".",".",".",".",".",".",".",".",".",".",".",".",".",".",".",".",".",".",".",".","."],[".",".",".",".",".",".",".",".",".",".",".",".",".",".",".",".",".",".",".",".",".",".",".",".",".",".",".",".",".",".",".",".",".",".",".",".",".",".",".",".",".",".",".",".",".",".",".",".",".","."],[".",".",".",".",".",".",".",".",".",".",".",".",".",".",".",".",".",".",".",".",".",".",".",".",".",".",".",".",".",".",".",".",".",".",".",".",".",".",".",".",".",".",".",".",".",".",".",".",".","."],[".",".",".",".",".",".",".",".",".",".",".",".",".",".",".",".",".",".",".",".",".",".",".",".",".",".",".",".",".",".",".",".",".",".",".",".",".",".",".",".",".",".",".",".",".",".",".",".",".",8],[0,0,0,0,0,0,0,0,0,0,0,0,5,0,0,0,0,0,0,0,0,0,0,0,0,1,0,0,0,0,0,0,0,0,0,0,0,0,2,0,0,0,0,0,0,0,0,8,9,"."]],[[".",".",".",".",".",".",".",".",".",".",".",".",".",".",".",".",".",".",".",".",".",".",".",".",".","."],[".",".",".",".",".",".",".",".",".",".",".",".",".",".",".",".",".",".",".",".",".",".",".",".",".","."],[5,"x6",".",".",".",5,"x6",".",".",".",".",".",".",5,"x6",".",".",".",5,"x6",".",".",".",".",".","."],[5,"x6",".",".",".",5,"x6",".",".",".",".",".",".",5,"x6",".",".",".",5,"x6",".",".",".",".",".","."],[5,"x6",0,0,1,5,"x6",0,0,1,0,5,6,5,"x6",0,0,1,5,"x6",0,0,1,0,5,6],[".",".",0,0,1,".",".",0,0,1,0,5,6,".",".",0,0,1,".",".",0,0,1,0,5,6]],[[".",".",".",".",".",".",".",".",".",".",".",".",".",".",".",".",".",".",".",".",".",".",".",".",".","."],[".",".",".",".",".",".",".",".",".",".",".",".",".",".",".",".",".",".",".",".",".",".",".",".",".","."],[5,"x6",".",".",".",5,"x6",".",".",".",".",".",".",5,"x6",".",".",".",5,"x6",".",".",".",".",".","."],[5,"x6",".",".",".",5,"x6",".",".",".",".",".",".",5,"x6",".",".",".",5,"x6",".",".",".",".",".","."],[5,"x6",0,0,6,5,"x6",0,0,6,0,1,3,5,"x6",0,0,1,5,"x6",0,0,1,0,5,6],[".",".",0,0,6,".",".",0,0,6,0,1,3,".",".",0,0,1,".",".",0,0,1,0,5,6]]],"numberofstrings":6,"notes":["E","B","G","D","A","D","B"],"capo":0,"stringnotes":["E4","B3","G3","D3","A2","D1"],"comments":["Stave 1:","Stave 2:","Stave 3:","Stave 4:","Stave 5:"],"timing":[["W","W","W","W","W","W","W","W","W","W","W","W","W","W","W","W","W","W","W","W","W","W","W","W","W","W","W","W","W","W","W","W","W","W","W","W"],["W","W","W","W","W","W","W","W","W","W","W","W","W","W","W","W","W","W","W","W","W","W","W","W","W","W","W","W","W","W","W","W","W","W","W","W","W","W","W","W","W","W","W","W","W","W","W","W"],["W","W","W","W","W","W","W","W","W","W","W","W","W","W","W","W","W","W","W","W","W","W","W","W","W","W","W","W","W","W","W","W","W","W","W","W","W","W","W","W","W","W","W","W","W","W","W","W","W","W"],["W","W","W","W","W","W","W","W","W","W","W","W","W","W","W","W","W","W","W","W","W","W","W","W","W","W"],["W","W","W","W","W","W","W","W","W","W","W","W","W","W","W","W","W","W","W","W","W","W","W","W","W","W"]],"timingvisible":false,"tabcounter":25,"stave":4,"totalstaves":5,"instrument":"6guitar","selectedtuning":"6_standard","version":"13"}

Member for

5 days 22 hours
Submitted by fiszmak on Mon, 2021-01-11 13:18