Sound will begin in 5 seconds

Dreaming of the day

01234567891011121314151617181920212223
E
B
G
D
A
E
B
0 1 2 3 4 5 6 7 8 9 10 11 12 13 14 15 16 17 18 19 20 21 22 23
Song Science #1: How Pros Use 6 Chords to Write Hit Songs
(/) Slide Up  (\) Slide Down  (h) Hammer On  (p) Pull Off  (b) Bend (r) Release (v) Vibrato

Stave 1:

E|--------------------------------------------------------------
B|--------------------------------------------------------------
G|--------------------------------------------------------------
D|-----4-----4-----------------------7-----7--------------------
A|--5-----5-----5-----5-----5-----9-----9-----9-----7-----7-----
E|-----------------7-----7-----7-----------------9-----9-----9--

Stave 2:

E|--------------------------------------------------------------------------
B|--------------------------------------------------------------------------
G|--------------------------------------------------------------------------
D|-----4-----4-----4-----------------------7-----7-----7--------------------
A|--5-----5-----5--------5-----5-----5--9-----9-----9--------7-----7-----7--
E|--------------------7-----7-----7-----------------------9-----9-----9-----

Stave 3:

E|--2--2--5--2--
B|--3--3--3--2--
G|--2--4--2--3--
D|--0--4--0--4--
A|--0--2--0--4--
E|--0--2--0--2--

Stave 4:

E|--7--5--4--
B|--7--5--4--
G|--8--6--5--
D|--9--7--6--
A|--9--7--6--
E|--7--5--4--

Stave 5:

E|--7--5--4--2--
B|--7--5--4--2--
G|--8--6--5--3--
D|--9--7--6--4--
A|--9--7--6--4--
E|--7--5--4--2--

http://www.guitartabcreator.com
Guitar Tab Creator is intended to store guitar tab created through the tool. It currently does not support in-line text editing. Any text you place in here will be lost. If you need to comment on your tab, please use the "Tab Notes" section located below.