Sound will begin in 5 seconds

birds, blaze, and breeze

01234567891011121314151617181920212223
E
B
G
D
A
E
B
0 1 2 3 4 5 6 7 8 9 10 11 12 13 14 15 16 17 18 19 20 21 22 23
Song Science #1: How Pros Use 6 Chords to Write Hit Songs
(/) Slide Up  (\) Slide Down  (h) Hammer On  (p) Pull Off  (b) Bend (r) Release (v) Vibrato

Stave 1:

E|-----------------
B|--------------7--
G|-----------------
D|-----5-----5-----
A|--7-----7--------
E|-----------------

Stave 2:

E|-------------------------------------------------------------
B|---------12-----------12-------------12--------------12------
G|-------------------------------------------------------------
D|------9------9-----9------9------10------10------10------10--
A|--10------------9------------12--------------10--------------
E|-------------------------------------------------------------

Stave 3:

E|--0--0---0---0---0---
B|--7--12--12--12--12--
G|--0--0---0---0---0---
D|--5--9---9---10--10--
A|--7--10--9---12--10--
E|--0--0---0---0---0---

Stave 4:

E|----------------------------------------------------------------------------------
B|----------------------------------------------------------------------------------
G|--------9--------9--------------7--------7----------------12----------12----------
D|-----7--------7--------7-----5--------5--------5------10----------10----------10--
A|--9--------9--------9-----7--------7--------7-----12----------12----------12------
E|----------------------------------------------------------------------------------

Stave 5:

E|----------------------------------
B|----------------------------------
G|----------12----------12----------
D|------10----------10----------10--
A|--11----------11----------11------
E|----------------------------------

Stave 6:

E|----------------
B|----------------
G|--9--7--12--12--
D|--7--5--10--10--
A|--9--7--12--11--
E|----------------

Stave 7:

E|--------------------------------------------------------------------------
B|--------------------------------------------------------------------------
G|--------------7-----------------------8-----------------------9-----------
D|--------------------------------------------------------------------------
A|-----5-----5-----5-----5-----6-----6-----6-----6-----7-----7-----7-----7--
E|--7-----7-----------7-----7-----7-----------7-----8-----8-----------8-----

http://www.guitartabcreator.com
Guitar Tab Creator is intended to store guitar tab created through the tool. It currently does not support in-line text editing. Any text you place in here will be lost. If you need to comment on your tab, please use the "Tab Notes" section located below.