Sound will begin in 5 seconds

Entrada dos Gladiadores

01234567891011121314151617181920212223
E
B
G
D
A
E
B
0 1 2 3 4 5 6 7 8 9 10 11 12 13 14 15 16 17 18 19 20 21 22 23
Song Science #1: How Pros Use 6 Chords to Write Hit Songs
(/) Slide Up  (\) Slide Down  (h) Hammer On  (p) Pull Off  (b) Bend (r) Release (v) Vibrato

Stave 1:

E|------------------------------------------------------------------------------------------------
B|------------------------------------------------------------------------------------------------
G|--1--0-----0------------------0--------------0-----------------------------------------0--2--0--
D|------------------3--2--1--2-----3--3-----0-----3--3-----0------------0----0--0--4--------------
A|--------4------------------------------4--------------4-----------------------------2-----------
E|------------------------------------------------------------------------------------------------

Stave 2:

E|------------------------------------------------------------------------------------------------
B|--------------0-----0-----0-----0------0--------------------------------------------------------
G|------------------------------------------3--2--1--0--------------------------------------0--3--
D|--4--2------------------------------------------------4--3--0-----------0--4--0--4-----1--------
A|--------2--2-----2-----2-----2---------------------------------3--------------------4-----------
E|------------------------------------------------------------------------------------------------

Stave 3:

E|--------------------------------1--0-----5--3--1--1-----------0--------------------1--2-------
B|-----------------1-----1--------------3--------------3--3--0-----0--1-----1--0--3-------------
G|-----0-----2--0-----0-----2--4-----------------------------------------0-------------------2--
D|--0-----0-------------------------------------------------------------------------------------
A|----------------------------------------------------------------------------------------------
E|----------------------------------------------------------------------------------------------

Stave 4:

E|-------------0--------------------------------1--0-----5--3--1--1-------------0-----
B|--1----0--1-----1--3-----1-----1-----0--2--4--------3--------------3--3--1----------
G|----------------------0-----0-----0----------------------------------------------0--
D|------------------------------------------------------------------------------------
A|------------------------------------------------------------------------------------
E|------------------------------------------------------------------------------------

Stave 5:

E|--------------1--2--------------0--------------------------------------------
B|--1-----1--3-----------1--0--1-----1--3-----1----------------1----1--1----1--
G|-----0--------------2--------------------0-----------------------------------
D|-----------------------------------------------------------------------------
A|-----------------------------------------------------------------------------
E|-----------------------------------------------------------------------------

Stave 6:

E|--5----6--7--8----10--12--13--11--9--8h8--8--10------6-----6---------5--3--1--5--
B|--------------------------------------------------------3-----2------------------
G|---------------------------------------------------------------------------------
D|---------------------------------------------------------------------------------
A|---------------------------------------------------------------------------------
E|---------------------------------------------------------------------------------

Stave 7:

E|--3--2--5--3--0----------------------------------------------------
B|-----------------3--2----------------------------------------------
G|-----------------------2h2--2--2----2----2h2--2----2----2--2h2--2--
D|-------------------------------------------------------------------
A|-------------------------------------------------------------------
E|-------------------------------------------------------------------

Stave 8:

E|---------------------------------------------------------------------------------------------------
B|--0----0----1h1--1--1----1----3h3--3----3----3--1----1----1----1----0----0----1----1----1h1--1--1--
G|---------------------------------------------------------------------------------------------------
D|---------------------------------------------------------------------------------------------------
A|---------------------------------------------------------------------------------------------------
E|---------------------------------------------------------------------------------------------------

Stave 9:

E|-----------------------------------------------------------------------
B|-----------------------------------------------------------------------
G|-----------------------------------------------------------------------
D|-------------------0--1--2----2--------3----2--0-----0--2--------------
A|--0----0--2--3--4----------------4--0-------------4--------4--0--1--0--
E|-----------------------------------------------------------------------

Stave 10:

E|---------------------------------------------------------------------------------
B|---------------------------------------------------------------------------------
G|-------------------------0----0------------3-------2--0-------3-------2--0-------
D|-------------0--2--3--4------------2-------------------------------4-------------
A|--3----3--4-----------------------------3-------4----------3------------------3--
E|---------------------------------------------------------------------------------

Stave 11:

E|--------------------------------------
B|-----------------------------------0--
G|-----------------------0--1--2--3-----
D|--------0--1--2--3--4-----------------
A|--3--4--------------------------------
E|--------------------------------------

http://www.guitartabcreator.com
Guitar Tab Creator is intended to store guitar tab created through the tool. It currently does not support in-line text editing. Any text you place in here will be lost. If you need to comment on your tab, please use the "Tab Notes" section located below.