Sound will begin in 5 seconds

One Piece 17 Wake Up

01234567891011121314151617181920212223
E
B
G
D
A
E
B
0 1 2 3 4 5 6 7 8 9 10 11 12 13 14 15 16 17 18 19 20 21 22 23
Song Science #1: How Pros Use 6 Chords to Write Hit Songs
(/) Slide Up  (\) Slide Down  (h) Hammer On  (p) Pull Off  (b) Bend (r) Release (v) Vibrato

Stave 1:

E|----------------------------------------------------------------
B|--------8--9--8--9--8--9--11--8--------8--9--8--9--8--9--11--8--
G|-----8------------------------------8---------------------------
D|--8------------------------------8------------------------------
A|----------------------------------------------------------------
E|----------------------------------------------------------------

Stave 2:

E|------------------------------------------------
B|--------11--11--9--8--9--------11--11--9--8-----
G|--8--8-------------------8--8----------------8--
D|------------------------------------------------
A|------------------------------------------------
E|------------------------------------------------

Stave 3:

E|--------------------------------------------------------------------
B|--------------------11--9-------------------------------------------
G|--8--10--11--8--11---------11--10----------8------8------8--11--10--
D|-----------------------------------11--11-----11-----11-------------
A|--------------------------------------------------------------------
E|--------------------------------------------------------------------

Stave 4:

E|-----------------------------------------------------------
B|-------------------------------------------------8--9--11--
G|------8------8------8------8--11--10------8--10------------
D|--11-----11-----11-----11-------------11-------------------
A|-----------------------------------------------------------
E|-----------------------------------------------------------

Stave 5:

E|----------------------------------------------------------------------
B|----------------------------------------------10--9--10--12-----------
G|--9--8---------------------9--9--11--9--9--9-----------------9--9h11--
D|--------11--9--7--6--7--9---------------------------------------------
A|----------------------------------------------------------------------
E|----------------------------------------------------------------------

Stave 6:

E|--------------------------------------
B|--------------------------------7--9--
G|-----------------------------9--------
D|--9--9--9--9--7--6--7--9--9-----------
A|--------------------------------------
E|--------------------------------------

Stave 7:

E|------------------------------------------------
B|------------------------------------7-----------
G|--9--9--8------------9--9--------------9--------
D|-----------11--9--7--------7--7--9--------------
A|------------------------------------------------
E|------------------------------------------------

Stave 8:

E|--------------------------------------
B|------------------------9-------------
G|---------------------9-----11--9--11--
D|--9--9--9--8--9--11-------------------
A|--------------------------------------
E|--------------------------------------

Stave 9:

E|--------------------------------------
B|--------------------------------7--9--
G|-----------------------------9--------
D|--9--9--9--9--7--6--7--9--9-----------
A|--------------------------------------
E|--------------------------------------

Stave 10:

E|---------------------------------------------
B|------------------------------------7--------
G|--9--9--8------------9--9--------------9-----
D|-----------11--9--7--------7--7--9-----------
A|---------------------------------------------
E|---------------------------------------------

Stave 11:

E|-----------------------------
B|--------------7--------------
G|--6--6--8--9-----6--8--9-----
D|-----------------------------
A|-----------------------------
E|-----------------------------

Stave 12:

E|--------------------------------------------
B|--------------------------------------------
G|--7--7--7--9--7--4--2--4--6--4--2--1--2--4--
D|--------------------------------------------
A|--------------------------------------------
E|--------------------------------------------

Stave 13:

E|--------------------------------------------------------------------------
B|--------------------9--9--7--7-----9--7--7-----9--7-----9--7-----7--9--9--
G|--7--7--7--9--6--9--------------9-----------9--------9--------9-----------
D|--------------------------------------------------------------------------
A|--------------------------------------------------------------------------
E|--------------------------------------------------------------------------

http://www.guitartabcreator.com
Guitar Tab Creator is intended to store guitar tab created through the tool. It currently does not support in-line text editing. Any text you place in here will be lost. If you need to comment on your tab, please use the "Tab Notes" section located below.