Sound will begin in 5 seconds

marmo 3

01234567891011121314151617181920212223
E
B
G
D
A
E
B
0 1 2 3 4 5 6 7 8 9 10 11 12 13 14 15 16 17 18 19 20 21 22 23
Song Science #1: How Pros Use 6 Chords to Write Hit Songs
(/) Slide Up  (\) Slide Down  (h) Hammer On  (p) Pull Off  (b) Bend (r) Release (v) Vibrato

Stave 1:

E|--x-------------------x-------------------x------------x--------x------------x---
B|--x-------------------x-------------------x------------x--------x------------x---
G|--x-------------------x-------------------x------------x--------x------------13--
D|--13------------------13------------------11-----------9--------11-----------13--
A|--13------------------13------------------11--11h13/9--9--------11--9/11/13--13--
E|--11--11--13--14--11--11--11--13--14--11--9------------7--7--9--9------------11--

Stave 2:

E|--11--11--14--11--11--11--
B|--14--12--12--12--11--14--
G|--13--13--13--13--11--13--
D|----------------------11--
A|--------------------------
E|--------------------------

Stave 3:

E|--7--2--9---x--4--
B|--7--2--9---x--4--
G|--8--3--10--x--5--
D|--9--4--11--x--6--
A|--9--4--11--6--6--
E|--7--2--9---4--4--

Stave 4:

E|------------------------------------------------------------------------
B|------------------------------------------------------------------------
G|--11-----11--------------11--13b11------13--11--10--11--13--11--10------
D|--11h13------13--11--13-------------13------------------------------13--
A|------------------------------------------------------------------------
E|------------------------------------------------------------------------

Stave 5:

E|----------------------------------------------------------------------
B|----------------------------------------------------------------------
G|----------11--13--------------11--13--11--------------11--------------
D|--11--13----------13--11--13--------------13--11--13------13--11--13--
A|----------------------------------------------------------------------
E|----------------------------------------------------------------------

Stave 6:

E|--------------------------------------------------------11--11--------------------------
B|--------------------------------------------------------14--11--------------------------
G|--11-----11------11--------------11--13b11------11/13v--13--13--13--11--10--10----------
D|--11h13------13------13--11--13-------------13----------11--11------------------13--11--
A|----------------------------------------------------------------------------------------
E|----------------------------------------------------------------------------------------

Stave 7:

E|----------------------------------------------------------------------
B|--14----------14----------14----------14----------14----------14------
G|------15--13------15--13------15--13------15--13------15--13------13--
D|----------------------------------------------------------------------
A|----------------------------------------------------------------------
E|----------------------------------------------------------------------

Stave 8:

E|------------------------------------------------------------------------
B|--14----------14----------14----------14----------14----------14/19\16--
G|------15--13------15--13------15--13------15--13------15--13------------
D|------------------------------------------------------------------------
A|------------------------------------------------------------------------
E|------------------------------------------------------------------------

Stave 9:

E|-----------------------------------------------------------------------
B|------------------------------------------------16--20b20--20--18--20--
G|--11-----11------11--------------11--13b11-----------------------------
D|--11h13------13------13--11--13-------------13-------------------------
A|-----------------------------------------------------------------------
E|-----------------------------------------------------------------------

Stave 10:

E|----------------------21--21----------------------------------
B|--18--20--18--20--18----------20--18--18--20--18--20------18--
G|------------------------------------------------------20------
D|--------------------------------------------------------------
A|--------------------------------------------------------------
E|--------------------------------------------------------------

Stave 11:

E|-----------------------------------------
B|--16--14----------14--16--14------14/16--
G|----------15--15--------------13---------
D|-----------------------------------------
A|-----------------------------------------
E|-----------------------------------------

http://www.guitartabcreator.com
Guitar Tab Creator is intended to store guitar tab created through the tool. It currently does not support in-line text editing. Any text you place in here will be lost. If you need to comment on your tab, please use the "Tab Notes" section located below.