Sound will begin in 5 seconds

marmo

01234567891011121314151617181920212223
E
B
G
D
A
E
B
0 1 2 3 4 5 6 7 8 9 10 11 12 13 14 15 16 17 18 19 20 21 22 23
Song Science #1: How Pros Use 6 Chords to Write Hit Songs
(/) Slide Up  (\) Slide Down  (h) Hammer On  (p) Pull Off  (b) Bend (r) Release (v) Vibrato

Stave 1:

E|--x-----------------------x-----------------------x------------x--------x------------x---
B|--x-----------------------x-----------------------x------------x--------x------------x---
G|--x-----------------------x-----------------------x------------x--------x------------11--
D|--13----------------------13----------------------11-----------9--------11-----------13--
A|--13----------------------13----------------------11--11h13/9--9--------11--9/11/13--13--
E|--11------11--13--14--11--11----11--13--14--11----9------------7--7--9--9------------11--

Stave 2:

E|--11------11------14--11----11------11--
B|--14------12------12--12----11------14--
G|--13------13------13--13----11------13--
D|----------------------------------------
A|----------------------------------------
E|----------------------------------------

Stave 3:

E|--7----2----9--------4--
B|--7----2----9--------4--
G|--8----3----10-------5--
D|--9----4----11-------6--
A|--9----4----11----6--6--
E|--7----2----9-----4--4--

Stave 4:

E|--------------------------------------------------------------------------------------------
B|--------------------------------------------------------------------------------------------
G|--11-----11--------------11--13b11--10------13--11--10--11--13--11--10----------11--10------
D|--11h13------13--11--13-----------------13------------------------------13--11----------13--
A|--------------------------------------------------------------------------------------------
E|--------------------------------------------------------------------------------------------

Stave 5:

E|--
B|--
G|--
D|--
A|--
E|--

Stave 6:

E|--------------------------------------------------
B|--------------------------------------------------
G|----------11--13--11--------------11--------------
D|--11--13--------------13--11--13------13--11--13--
A|--------------------------------------------------
E|--------------------------------------------------

Stave 7:

E|------------------------------------------------------------------------------------------
B|------------------------------------------------------------------------------------------
G|--11-----11------11--------------11--13b11--11------18--15--------------------------------
D|--11h13------13------13--11--13-----------------13----------16/18--16/18--16--------------
A|------------------------------------------------------------------------------18--16--18--
E|------------------------------------------------------------------------------------------

Stave 8:

E|------------------
B|------------------
G|------------------
D|--16--------------
A|------18--16--18--
E|------------------

Stave 9:

E|---------------------------------------------------------------------------------------
B|--------------------------------------------19/21----------------------------------19--
G|--11-------------11--13b13------11------20---------20------20------20------20--18------
D|--11h13--11--13-------------13------13-----------------20------20------20--------------
A|---------------------------------------------------------------------------------------
E|---------------------------------------------------------------------------------------

Stave 10:

E|-----------------------------------------
B|-------------------------19--------------
G|--18/20--18------------------20--18--20--
D|-------------20--18--20------------------
A|-----------------------------------------
E|-----------------------------------------

http://www.guitartabcreator.com
Guitar Tab Creator is intended to store guitar tab created through the tool. It currently does not support in-line text editing. Any text you place in here will be lost. If you need to comment on your tab, please use the "Tab Notes" section located below.