Sound will begin in 5 seconds

colla

01234567891011121314151617181920212223
E
B
G
D
A
E
B
0 1 2 3 4 5 6 7 8 9 10 11 12 13 14 15 16 17 18 19 20 21 22 23
Song Science #1: How Pros Use 6 Chords to Write Hit Songs
(/) Slide Up  (\) Slide Down  (h) Hammer On  (p) Pull Off  (b) Bend (r) Release (v) Vibrato

Stave 1:

E|--2----------------------x------x------------------------x--
B|--3----------------------2------3------------------------x--
G|--4----------------------2------2------------------------x--
D|--4----------------------2------2------------------------2--
A|--2----------------------x------x------------------------2--
E|--x----------------------x------x------------------------0--

Stave 2:

E|--x----x----------------x----x--------------------x----x----------------x----0--
B|--x----0----------------x----0--------------------x----0----------------x----0--
G|--2----2----------------4----4--------------------2----2----------------1----1--
D|--4----4----------------2----2--------------------4----4----------------2----2--
A|--4----x----------------0----x--------------------0----x----------------2----2--
E|--x----x----------------x----x--------------------x----x----------------0----0--

Stave 3:

E|--2------------------------0----------------------0----x--
B|--3------------------------2----------------------0----x--
G|--2------------------------2----------------------1----x--
D|--0------------------------2----------------------2----x--
A|--0------------------------0----------------------2----2--
E|--0------------------------0----------------------0----0--

Stave 4:

E|------------------------------------------------------------------------------------------------
B|------------------------------------------------------------------------------------------------
G|------------------------------------------------------------------------------------------------
D|------------------------------------------------------------------------------------------------
A|-----9-----9-----9-----9-----9-----9-----9-----9------9------9--12--9---------7-----7--4--------
E|--7-----7-----7-----7-----7-----7-----7-----7-----10-----10------------10--5-----5--------5--7--

Stave 5:

E|--14----------17--14----------14------
B|------15--------------15--------------
G|----------16--------------16------16--
D|--------------------------------------
A|--------------------------------------
E|--------------------------------------

Stave 6:

E|----------------------------17--14----------------------------------------------
B|------------------------------------15h14-----------------14--------------------
G|------14--16--15-17-15---------------------16---------------------------15-17v--
D|--16----------16/18/16-----------------------------14h16------16--------16/18---
A|--------------------------------------------------------------------------------
E|--------------------------------------------------------------------------------

Stave 7:

E|--
B|--
G|--
D|--
A|--
E|--

http://www.guitartabcreator.com
Guitar Tab Creator is intended to store guitar tab created through the tool. It currently does not support in-line text editing. Any text you place in here will be lost. If you need to comment on your tab, please use the "Tab Notes" section located below.