Sound will begin in 5 seconds

b77

01234567891011121314151617181920212223
E
B
G
D
A
E
B
0 1 2 3 4 5 6 7 8 9 10 11 12 13 14 15 16 17 18 19 20 21 22 23
Song Science #1: How Pros Use 6 Chords to Write Hit Songs
(/) Slide Up  (\) Slide Down  (h) Hammer On  (p) Pull Off  (b) Bend (r) Release (v) Vibrato

Stave 1:

E|--6----6----6--x------9--9--9--9--6----4--4--4------x------------------------
B|--6----6----7--6------6--6--6--7--6----4--4--4------x------------------------
G|--6-8--6-8--8--6------6--6--6--6--6----5--5--5------3------------------------
D|--6h8--6h8--8--6------6--6--6--6--x----6--6--6------4---------6-----4--3-----
A|---------------x------------------x----6--6--6------4------------------------
E|---------------x------------------x----4--4--4------2------4-----2--------4--

Stave 2:

E|--6--------6--6--6--6------4--------4--4--4--4--------6--------6--6------4--
B|--6--------6--6--6--6------4--------4--4--4--4--------6--------6--6------4--
G|--6--------6--6--6--6------5--------5--5--5--5--------6--------6--6------5--
D|--8--------8--8--8--8------6--------6--6--6--6--------8--------8--8------6--
A|--8--------8--8--8--8------6--------6--6--6--6--------8--------8--8------6--
E|--6--------6--6--6--6------4--------4--4--4--4--------6--------6--6------4--

Stave 3:

E|--6-----x--x--x--x--x--6----x--6------6--6--6----------6--6--6------x--x--x--6--6--6--x----x------
B|--6-----x--x--x--x--x--7----x--7------7--7--7----------7--7--7------6--x--6--6--6--6--x----6------
G|--6--8--x--x--x--x--x--8----x--8------8--8--8----------8--8--8------6--x--6--6--6--6--x----6------
D|--6--8--x--x--x--x--x--8----x--8------8--8-------------8--8--8------6--x--6--6--6--6--x----6------
A|--x-----x--x--x--x--x--6----x--6------6----------------6--6--6------x--x--x--x--x--x--x----x------
E|--x-----x--x--x--x--x--x----x--x-----------------------x--x--x------x--x--x--x--x--x--x----x------

Stave 4:

E|--x--x--x--9------9--9--9--x--9--x--9--9--9------9--9--6--6--------6--x--6--x--6--6--6------
B|--6--6--6--6------6--6--7--x--7--x--7--7--7------7--7--7--9--------9--x--9--x--9--9--9------
G|--6--6--6--6------6--6--6--x--6--x--6--6--6------6--6--6--8--------8--x--8--x--8--8--8------
D|--6--6--6--6------6--6--6--x--6--x--6--6--6------6--6--6--6--------6--x--6--x--6--6--6------
A|--x--x--x-----------------------------------------------------------------------------------
E|--x--x--x-----------------------------------------------------------------------------------

Stave 5:

E|--6--6--6--6--x------6--6--6--6----6------6--6--6--6------x--x--x--
B|--9--9--9--9--x------9--9--9--9----7------7--7--7--7------x--x--x--
G|--8--8--8--8--x------8--8--8--8----6------6--6--6--6------x--x--x--
D|--6--6--6--6--x---------------6----8------8--8--8--8------x--x--x--
A|--6--6--6--6--x--------------------6------6--6--6--6------x--x--x--
E|-------------------------------------------------------------------

Stave 6:

E|----------------------------------------------------------------------------------13----------
B|--21------18------16------14--------------14------21------18------16------14----------14------
G|------20------18------15------15--13--15--------------20------18------15------15----------15--
D|----------------------------------------------------------------------------------------------
A|----------------------------------------------------------------------------------------------
E|----------------------------------------------------------------------------------------------

Stave 7:

E|--------------------------------------------------
B|--21------18------16------14--------------14------
G|------20------18------15------15--13--15------15--
D|--------------------------------------------------
A|--------------------------------------------------
E|--------------------------------------------------

Stave 8:

E|--------------------------------
B|--21/18--21/18--18--16--14------
G|----------------------------15--
D|--------------------------------
A|--------------------------------
E|--------------------------------

http://www.guitartabcreator.com
Guitar Tab Creator is intended to store guitar tab created through the tool. It currently does not support in-line text editing. Any text you place in here will be lost. If you need to comment on your tab, please use the "Tab Notes" section located below.