Sound will begin in 5 seconds

Longer Tab

01234567891011121314151617181920212223
E
B
G
D
A
E
B
0 1 2 3 4 5 6 7 8 9 10 11 12 13 14 15 16 17 18 19 20 21 22 23
Song Science #1: How Pros Use 6 Chords to Write Hit Songs
(/) Slide Up  (\) Slide Down  (h) Hammer On  (p) Pull Off  (b) Bend (r) Release (v) Vibrato

Stave 1:

E|-------------------------------------------------------------
B|--------0h3--0--------------0--0h3--0------------------------
G|-----0----------2-----0--2-------------0--0------------0-----
D|---------------------------------------------2p0--0h2--------
A|-------------------------------------------------------------
E|--3----------------3--------------------------------------3--

Stave 2:

E|-------------------------------0--2--------------------------
B|--------0h3--0--------------3--------3/5--3v-----------------
G|-----0----------2-----0--2-------------------------0---------
D|----------------------------------------------0h2------------
A|-------------------------------------------------------------
E|--3----------------3----------------------------------3------

Stave 3:

E|--10--8------8-----------------
B|---------11-----------8h10--8--
G|-------------------7-----------
D|--8-------------7--------------
A|-------------------------------
E|-------------------------------

Stave 4:

E|-------------------------------------
B|--6---------5----------3--4/6--------
G|--------------------3----------7-----
D|----------------------------------8--
A|--3----3---------3-------------------
E|-------------------------------------

Stave 5:

E|------------------------------------------
B|--6-------5-------6--4p3-----3h4--3-------
G|--------------------------5----------5p3--
D|------------------------------------------
A|--3----3-------3--------------------------
E|------------------------------------------

Stave 6:

E|------------------------
B|-----1h3v------1p0------
G|--0-----------------2v--
D|------------------------
A|------------------------
E|------------------------

http://www.guitartabcreator.com
Guitar Tab Creator is intended to store guitar tab created through the tool. It currently does not support in-line text editing. Any text you place in here will be lost. If you need to comment on your tab, please use the "Tab Notes" section located below.