Sound will begin in 5 seconds

Let's Go Guitar

Chords
01234567891011121314151617181920212223
E
B
G
D
A
E
B
0 1 2 3 4 5 6 7 8 9 10 11 12 13 14 15 16 17 18 19 20 21 22 23
Song Science #1: How Pros Use 6 Chords to Write Hit Songs
(/) Slide Up  (\) Slide Down  (h) Hammer On  (p) Pull Off  (b) Bend (r) Release (v) Vibrato

Stave 1:

C|--0--0--x--0--0--0--x--0--0--0--x--0--0--0--x--x--0---0---x--0---0---0---x--0---0---0---x--
G|--0--0--x--0--0--0--x--0--0--0--x--0--0--0--x--x--0---0---x--0---0---0---x--0---0---0---x--
C|--0--0--x--0--0--0--x--0--0--0--x--0--0--0--x--x--0---0---x--0---0---0---x--0---0---0---x--
G|--9--9--x--7--7--7--x--9--9--9--x--7--7--7--x--x--11--11--x--12--12--12--x--11--11--11--x--
C|--5--5--x--5--5--5--x--5--5--5--x--5--5--5--x--x--9---9---x--9---9---9---x--9---9---9---x--
E|--5--5--x--5--5--5--x--5--5--5--x--5--5--5--x--x--9---9---x--9---9---9---x--9---9---9---x--

Stave 2:

C|-----0---0---x--x--
G|-----0---0---x--x--
C|-----0---0---x--x--
G|-----12--12--x--x--
C|-----9---9---x--x--
E|-----9---9---x--x--

Stave 3:

C|--x--x--0--0--0-----0--0--x--x--0--0--0-----0--0--x--x--0---0---0------0---0---x--x--
G|--x--x--0--0--0-----0--0--x--x--0--0--0-----0--0--x--x--0---0---0------0---0---x--x--
C|--x--x--0--0--0-----0--0--x--x--0--0--0-----0--0--x--x--0---0---0------0---0---x--x--
G|--x--x--9--9--9-----9--9--x--x--9--9--9-----9--9--x--x--12--12--12-----12--12--x--x--
C|--x--x--5--5--5-----5--5--x--x--5--5--5-----5--5--x--x--9---9---9------9---9---x--x--
E|--x--x--5--5--5-----5--5--x--x--5--5--5-----5--5--x--x--9---9---9------9---9---x--x--

Stave 4:

C|--0---0---0------0---0---x--x--
G|--0---0---0------0---0---x--x--
C|--0---0---0------0---0---x--x--
G|--12--12--12-----12--12--x--x--
C|--9---9---9------9---9---x--x--
E|--9---9---9------9---9---x--x--

Stave 5:

C|--0--0--0-----0--0--x--x--0--0--0-----0--0--x--x--0--0--0-----0--0--x--x--0--0--0-----0--0--x--x--
G|--0--0--0-----0--0--x--x--0--0--0-----0--0--x--x--0--0--0-----0--0--x--x--0--0--0-----0--0--x--x--
C|--0--0--0-----0--0--x--x--0--0--0-----0--0--x--x--0--0--0-----0--0--x--x--0--0--0-----0--0--x--x--
G|--7--7--7-----7--7--x--x--7--7--7-----7--7--x--x--9--9--9-----9--9--x--x--9--9--9-----9--9--x--x--
C|--7--7--7-----7--7--x--x--7--7--7-----7--7--x--x--9--9--9-----9--9--x--x--9--9--9-----9--9--x--x--
E|--7--7--7-----7--7--x--x--7--7--7-----7--7--x--x--9--9--9-----9--9--x--x--9--9--9-----9--9--x--x--

Stave 6:

C|--0--0--0-----0--0--x--x--0--0--0-----0--0--x--x--0--0--0-----0--0--x--x--0--0--0-----0--0--x--x--
G|--0--0--0-----0--0--x--x--0--0--0-----0--0--x--x--0--0--0-----0--0--x--x--0--0--0-----0--0--x--x--
C|--0--0--0-----0--0--x--x--0--0--0-----0--0--x--x--0--0--0-----0--0--x--x--0--0--0-----0--0--x--x--
G|--4--4--4-----4--4--x--x--4--4--4-----4--4--x--x--5--5--5-----5--5--x--x--5--5--5-----5--5--x--x--
C|--4--4--4-----4--4--x--x--4--4--4-----4--4--x--x--5--5--5-----5--5--x--x--5--5--5-----5--5--x--x--
E|--4--4--4-----4--4--x--x--4--4--4-----4--4--x--x--5--5--5-----5--5--x--x--5--5--5-----5--5--x--x--

http://www.guitartabcreator.com
Guitar Tab Creator is intended to store guitar tab created through the tool. It currently does not support in-line text editing. Any text you place in here will be lost. If you need to comment on your tab, please use the "Tab Notes" section located below.