Sound will begin in 5 seconds

tim henson-bittersweet

Chords
01234567891011121314151617181920212223
E
B
G
D
A
E
B
0 1 2 3 4 5 6 7 8 9 10 11 12 13 14 15 16 17 18 19 20 21 22 23
Song Science #1: How Pros Use 6 Chords to Write Hit Songs
(/) Slide Up  (\) Slide Down  (h) Hammer On  (p) Pull Off  (b) Bend (r) Release (v) Vibrato

Stave 1:

E|---------------------------------------5h7-------5-----------7h8p7-----------------12-------------
B|------10---8---------------------------------8-------5---------------8------------------12--------
G|------9--------9-------7---9---7---5-------------------------------------9---7/9-------------12---
D|------7-------------------------------------------------------------------------------------------
A|------8------------3---5---------------------------------7---7------------------------------------
D|-------------------3---5---------------------------------7---7------------------------------------

Stave 2:

E|-----------0--------------------------------------------------------------------0---------------
B|---------------10---8-------------------------------------------------------0-------------------
G|---7\5/9-------9--------9-------7---9---7---5---4h5p4-------------------7-----------9---5-------
D|---------------7----------------------------------------5-----------5-----------------------7---
A|---------------8------------3---5---------------------------7---3-------------------------------
D|----------------------------3---5---------------------------------------------------------------

Stave 3:

E|-------------------0-----------------
B|---------------0---------------------
G|-----------7-----------12---9--------
D|-------5------------------------10---
A|---3---------------------------------
D|-------------------------------------

Stave 4:

E|---------------------------------------------------------------------------------------------------------
B|-----------------------15--------15/17---15/17-------------13--------15---13---15/17---15/17-------------
G|---12---14---12---14--------14-------------------12---14--------14-----------------------------14---14---
D|---------------------------------------------------------------------------------------------------------
A|---------------------------------------------------------------------------------------------------------
D|---------------------------------------------------------------------------------------------------------

Stave 5:

E|---------------------------15/17p0-------------0---------------------------------------------------------
B|---------------10----------------------------------17---17---17\15---15---15---15\13---13---13---13/15---
G|-----------9--------12p9-------------9\7\5/9-------------------------------------------------------------
D|-------7-------------------------------------------------------------------------------------------------
A|---8-----------------------------------------------------------------------------------------------------
D|---------------------------------------------------------------------------------------------------------

Stave 6:

E|----------------------------15/17p0-------------0-------------------------------------------------
B|---15/17---13---13----------------------------------17---17---17\15---15---15---15\13---13---13---
G|---------------------12p9-------------9\7\5/9-----------------------------------------------------
D|--------------------------------------------------------------------------------------------------
A|--------------------------------------------------------------------------------------------------
D|--------------------------------------------------------------------------------------------------

Stave 7:

E|-----------17-------------
B|---13/20--------17---13---
G|--------------------------
D|--------------------------
A|--------------------------
D|--------------------------

http://www.guitartabcreator.com
Guitar Tab Creator is intended to store guitar tab created through the tool. It currently does not support in-line text editing. Any text you place in here will be lost. If you need to comment on your tab, please use the "Tab Notes" section located below.