Sound will begin in 5 seconds

Blues Song Arpeggiated Chorus

01234567891011121314151617181920212223
E
B
G
D
A
E
B
0 1 2 3 4 5 6 7 8 9 10 11 12 13 14 15 16 17 18 19 20 21 22 23
Song Science #1: How Pros Use 6 Chords to Write Hit Songs
(/) Slide Up  (\) Slide Down  (h) Hammer On  (p) Pull Off  (b) Bend (r) Release (v) Vibrato

Stave 1:

E|---------------------------------------------------------------------------------------
B|---------------------------------------------------------------------------------------
G|---------------2-0-6-3-----------------------------7-5-10b13r10------------------------
D|---------0h1h2---------5-3-------------------5h6h7--------------10b12r10---------------
A|-----0-3-------------------5p4p3---------5-7-----------------------------12p11p10------
E|-0-3-----------------------------5-3-5-7------------------------------------------13-8-

Stave 2:

E|---------------------------------------------------------------------------
B|---------------------------------------------------------------------------
G|----------------9-7-7-4-----------------------------2-0-6-3----------------
D|----------7h8h9---------7-5-------------------0h1h2---------5-3------------
A|-----7-10-------------------7p6p5---------0-3-------------------5p3h4------
E|-7-9------------------------------7-3-0-3-----------------------------5-3v-

http://www.guitartabcreator.com
Guitar Tab Creator is intended to store guitar tab created through the tool. It currently does not support in-line text editing. Any text you place in here will be lost. If you need to comment on your tab, please use the "Tab Notes" section located below.