Sound will begin in 5 seconds

Alice in Chains : We Die Young

01234567891011121314151617181920212223
E
B
G
D
A
E
B
0 1 2 3 4 5 6 7 8 9 10 11 12 13 14 15 16 17 18 19 20 21 22 23
Song Science #1: How Pros Use 6 Chords to Write Hit Songs
(/) Slide Up  (\) Slide Down  (h) Hammer On  (p) Pull Off  (b) Bend (r) Release (v) Vibrato

Stave 1:

E|---------------------------------------------------------
B|---------------------------------------------------------
G|---------------------------------------------------------
D|---------------------------------------------------------
A|-2-----5---3-----3-----3---3-5-2-----5---3-----3---5-3---
E|-2-0-0-5-0-3-0-0-3-0-0-3-0-3-5-2-0-0-5-0-3-0-0-3-0-5-3-0-

Stave 2:

E|---------------------------------------------------------------------------------------
B|---------------------------------------------------------------------------------------
G|---------------------------------------------------------------------------------------
D|---------------------------------------------------------------------------------------
A|-2-----5---3-----3-----3---3-5-2-----5---3-----3---5-3---2-----5---3-----3-----3---3-5-
E|-2-0-0-5-0-3-0-0-3-0-0-3-0-3-5-2-0-0-5-0-3-0-0-3-0-5-3-0-2-0-0-5-0-3-0-0-3-0-0-3-0-3-5-

Stave 3:

E|-------------------------------------------------------------------------------------
B|-----------------------6-8-14---6-----6---6-----6---8-6-14---6-----6---6-------------
G|-----------------------5-7-13---5-----5---5-----5---7-5-13---5-----5---5-------------
D|-----------------------3-5-11---3-----3---3-----3---5-3-11---3-----3---3-------------
A|-2-----5---3-----3-----3-5-11---3-----3---3-----3---5-3-11---3-----3---3-----3-5-3---
E|-2-0-3-5-0-3-0-0-3-0-0-3-5----0---0-0---0---0-0---0-5-3----0---0-0---0---0-0-3-5-3-0-

Stave 4:

E|-------------------------------------------------------------
B|-14---6-----6---6-----6---8-6-14---6-----6---6-----6---6-8-8-
G|-13---5-----5---5-----5---7-5-13---5-----5---5-----5---5-7-7-
D|-11---3-----3---3-----3---5-3-11---3-----3---3-----3---3-5-5-
A|-11---3-----3---3-----3---5-3-11---3-----3---3-----3---3-5-5-
E|----0---0-0---0---0-0---0-5-3----0---0-0---0---0-0---0-------

Stave 5:

E|-------------------------------------------------------
B|---------------------------------------3-----------6-8-
G|-------------------------------------5-------------5-7-
D|---------------------------------------------------3-5-
A|-3h5-3h5p3h5p3h5p3h5p3h5p3---3-5-3---------3-5-3---3-5-
E|---------------------------0-3-5-3-0-----0-3-5-3-0-3-5-

Stave 6:

E|-3-----------------------------------------------------------10-------10-------------
B|-3-------------------------------------10-12-12-0-12------10-------10----12p10-------
G|---3-3-3-3-3---------12-12p10-10-------10-12-12---12-0-12-------12-------------------
D|-------------0-0---0-------------10h12-----------------------------------------12r10-
A|-------------0-0---------------------------------------------------------------------
E|-------------0-0-0-------------------------------------------------------------------

Stave 7:

E|-----------------------------------
B|-----------------------------------
G|-7p5---5---------------------------
D|-----7---7-6-5\3-5p3---3-----------
A|---------------------5---5-0-----5-
E|-----------------------------6-5---

Stave 8:

E|---------------------------------------------------------------------------------------
B|---------------------------------------------------------------------------------------
G|---------------------------------------------------------------------------------------
D|---------------------------------------------------------------------------------------
A|-2-----5---3-----3-----3---3-5-2-----5---3-----3---5-3---2-----5---3-----3-----3---3-5-
E|-2-0-0-5-0-3-0-0-3-0-0-3-0-3-5-2-0-0-5-0-3-0-0-3-0-5-3-0-2-0-0-5-0-3-0-0-3-0-0-3-0-3-5-

Stave 9:

E|-------------------
B|-------------------
G|-------------------
D|-------5---------3-
A|-2-----5---3-----3-
E|-2-0-0-5-0-3-0-0-3-

http://www.guitartabcreator.com
Guitar Tab Creator is intended to store guitar tab created through the tool. It currently does not support in-line text editing. Any text you place in here will be lost. If you need to comment on your tab, please use the "Tab Notes" section located below.