Hard to Handle (jam part)

Chords

01234567891011121314151617181920212223
E
B
G
D
A
E
B
0 1 2 3 4 5 6 7 8 9 10 11 12 13 14 15 16 17 18 19 20 21 22 23
(/) Slide Up  (\) Slide Down  (h) Hammer On  (p) Pull Off  (b) Bend (r) Release (v) Vibrato


E|----------------------------------------
B|--------2-------------------------------
G|--4--2----------------------------------
D|--------------8-------8--9--8-----8--9--
A|-----------9-------9-----------9--------
E|----------------------------------------



E|------------------------------------------------
B|------------------------------------------------
G|--------------------------------7--7--9b9--9b9--
D|--9--9--7--7--7--7--7--7--9--9------------------
A|------------------------------------------------
E|------------------------------------------------



E|------
B|--14--
G|--11--
D|--11--
A|--13--
E|------
							http://www.guitartabcreator.com
[["."],["13"],["11"],["11"],["14"],["."]]

Member for

8 years 8 months
Submitted by eruby on Thu, 2011-11-17 03:53